Couple riffs


PDA

View Full Version : Couple riffs


slipknot_69
01-21-2006, 02:56 AM
These are a couple of riffs in a song of mine. Its in standard and let me know what you guys think.



Guitar 1
|-------------------------------------|
|-------------------------------------|
|-------------------------------------|
|-------------------------------------|
|-2---------------------4-2-----3b4---|
|-0-0-0-0-0-0-0-0-0-3-2-----3-2-------|

Guitar 2
|-----------------------9-7-----8b9---|
|-------------------8-7-----8-7-------|
|-------------------------------------|
|-------------------------------------|
|-2-----------------------------------|
|-0-0-0-0-0-0-0-0-0-------------------|

Verse Riff 1 (Clean)

|-----------------------------|
|-----------------------------|
|-----------------------------|
|-------2------3------2----5--|
|-0-2-3----0-2----0-2----0-3--|
|-----------------------------|

|-----------------------------|
|-----------------------------|
|-----------------------------|
|-------2------3------2----3--|
|-0-2-3----0-2----0-2----0-1--|
|-----------------------------|

Verse Riff 2 (Distorted)

|-----------------------------|
|-----------------------------|
|-----------------------------|
|-------2------3------2-------|
|---2-3------2------2-----5---|
|-0--------0------0-----0-3---|

|-----------------------------|
|-----------------------------|
|-----------------------------|
|-------2------3------2-------|
|---2-3------2------2-----3---|
|-0--------0------0-----0-1---|

les_paul_01
01-21-2006, 03:36 AM
out of curiosity what scale are you using? in the first line you use a minor 3rd and a major 6th (then minor 6th). they're pretty good riffs, but maybe elaborating on them might make them better.

slipknot_69
01-21-2006, 07:55 AM
The funny thing is, i dont really know what scale but i have this whole song made...even the solo. but ill fix them up

slipknot_69
01-21-2006, 08:09 AM
The beginning is a little wierd...let me know what you think.

|----------------------------|
|----------------------------|
|----------------------------|
|----------------------------|
|-3---2-<Dive to dropped D>--|
|-1---0--<lift back to E>----|
~~~~~~~~~~~~

|-------9-7------8b9---|
|---8-7-----8-7--------|
|----------------------|
|----------------------|
|-2--------------------|
|-0--------------------| X2

Guitar 1
|-------------------------|
|-------------------------|
|-------------------------|
|-------------------------|
|-2-----2-----2-----2-----|
|-0-----0-----0-----0-----|_
|
Guitar 2 |2X
|-----------------------6-|_|
|---8-7---8-7---8-7---7---|
|-------------------------|
|-------------------------|
|-------------------------|
|-------------------------|

Guitar 1
|-------------------------|
|-------------------------|
|-------------------------|
|-------------------------|
|-2-----2-----2-----2---3-|
|-0-0-0-0-0-0-0-0-0-0-0-1-|_
* * * * * * * |
Guitar 2 |2X
|-----------------------6-|_|
|---8-7---8-7---8-7---7---|
|-------------------------|
|-------------------------|
|-------------------------|
|-------------------------|

dittohead123
01-21-2006, 08:14 AM
can we post powertabs?

slipknot_69
01-21-2006, 04:49 PM
can we post powertabs?

i cant post them for some reason.