[Tab]The Tale of John McKey


PDA

View Full Version : [Tab]The Tale of John McKey


CptMorgan
01-23-2006, 11:25 AM
Starting putting something together today tell me what you think, I know its not technical.


Em / / C / /x 4
D / / C/ /
Em / / C/ /...or Maybe Em / / / /

Em 1 2
e---------------0-----------------0---------------
B------0-------------------0----------------------
G----------0------------------0-------------------
D--------------------------------------------------
A--2-----------------2----------------------------
E--------------------------------------------------
Cmaj 3 4
e----------------0-----------------0---------------
B---------1----------------1-----------------------
G------------0-----------------0--------------------
D------------------------------------------------
A---3-----------------3----------------------------
E------------------------------------------------

D

e-----------------2----------------2---------------
B----------3----------------3----------------------
G-------------2----------------2-------------------
D-----0----------------0---------------------------
A------------------------------------------------
E------------------------------------------------



Any opinions?

Alien_from_a_cd
01-29-2006, 11:48 AM
Well, I think it's a nice beginning, but you have to add to it, it sounds like it's gonna continue into something. Yeah I like it, it's simple and sweet. :)