melodic ness.


PDA

View Full Version : melodic ness.


inmysleep
01-23-2006, 08:39 PM
sorry posted this in the wrong thing before.

just came up with this melody thing i thought i was neat..


E|-------------------------------------------------------|
B|-------------------------------------------------------|
G|-----------12-----9------------------9-----------------|
D|-----9--------10-----10----7-----10------10--9-10----5-|
A|--7----10----------------------------------------------|
D|-------------------------------------------------------|




then after a while of that these chords go behind it

E|-------------|
B|-------------|
G|-------------|
D|--7--10----5-|
A|--7--10----5-|
D|--7--10----5-|


any advice or thoughts are appriciated..

hthedinga
01-23-2006, 09:23 PM
That's an ok riff. I don't really know though because there's no indicated rhythm. Don't bother with code; just use the courier new font to write tabs.

Bill43
01-24-2006, 04:35 AM
Seeing as you tried to use the code tags, I "fixed" it for you.

Please click on the following link and you'll read how to use the code tags the right way: http://www.ultimate-guitar.com/forum/announcement.php?f=46#2.2

krAmerPaCer21
01-24-2006, 07:43 AM
well i wrote more too it ill record it or something soon im not the best at tabbing everything out.

CptMorgan
01-24-2006, 11:13 AM
I like the melody not so much the chords. Also are you playing this slow or fast?

feel free to check out Mine (http://www.ultimate-guitar.com/forum/showthread.php?t=310095) if you want to.

phpn00bf4life
01-24-2006, 12:03 PM
It's good. I like a lot, but I'm not sure why you are in drop D? taking a look at the tab I don't see Drop D as a necisity, especially in the fingering...but hey, :p

MetalDreds09
01-24-2006, 04:48 PM
it sounded cool.....keep it up..love melodic stuff

inmysleep
01-26-2006, 12:46 AM
well im in like a screamo alternitive kinda band so the chords are being played behind it ill post a recording soon im glad you guys dig it tho im stuck on where to go with it.