Acoustic Riff [Tab][Midi]


PDA

View Full Version : Acoustic Riff [Tab][Midi]


*'-'*
01-24-2006, 11:20 PM
Here is a simple riff made up by picking open chords, the F5/Em chord is one i kinda invented because the F and Fm chords didn't fit as well. All crit welcome, listen to the midi for timing.

G

e|------3-------------|
B|--------0-----------|
G|--------------0-----|
D|----------0---------|
A|---2----------------|
E|-3----------3---3---|


E

e|------0-------------|
B|--------0-----------|
G|--------------1-----|
D|----------2---------|
A|---2----------------|
E|-0----------0---0---|


F5/Em

e|------0-------------|
B|--------0-----------|
G|--------------0-----|
D|----------3---------|
A|---3----------------|
E|-1----------1---1---|


E

e|------0-------------|
B|--------0-----------|
G|--------------1-----|
D|----------2---------|
A|---2----------------|
E|-0----------0---0---|


NB: the midi only plays the riff twice, but you play it longer than that.

PsychoFreak
01-25-2006, 12:49 PM
Reminds me of Nirvana somehow. It's quite nice but you really should change the notes to "Let Ring" ;)

gutsman
01-25-2006, 09:20 PM
listen to the midi for timing.

lol timing isn't very difficult :P only quarter of notes. song sounds nice overall