Would like people to rate First tab(TAB)


PDA

View Full Version : Would like people to rate First tab(TAB)


Arius
01-25-2006, 04:18 AM
This is the first tab I've written, and I'm not really sure what genre it is. I had Slipknot in mind when I made it but it came out different. Constructive critism please.

Tuning: EADGBE

e|----------------------------------------------------------------|
B|----------------------------------------------------------------| x1
G|----------------------------------------------------------------|
D|----------------------------------------------------------------|
A|-0-0-0-0-0-0-0-0-2-2-2-2-2-2-2-0--------------------------------|
E|---------------------------------1-1-1-1-1-1-1-1-3-3-3-3-3-3-3-0|

e|----------------------------------------------------------------|
B|----------------------------------------------------------------| x1
G|----------------------------------------------------------------|
D|----------------------------------------------------------------|
A|-0-0-0-0-0-0-0-0-2-2-2-2-2-2-2-0--------------------------------|
E|---------------------------------1-1-1-1-1-1-1-1-3-3-3-3-3-3-3-3|

e|---------------------------------------------------------------|
B|---------------------------------------------------------------|
G|---------------------------------------------------------------| x2
D|---------------------------------------------------------------|
A|-2-4-5-4-2---2-4-5-4-2---2-4-5-4-2---2-4-5-4-0-2---------------|
E|-----------3-----------2-----------3---------------------------|

e|---------------------------------------------------------------|
B|---------------------------------------------------------------|
G|---------------------------------------------------------------| x2
D|---------------------------------------------------------------|
A|-2--4-5-1--3-4-0--2-3--7-5-7-3-5-1-----------------------------|
E|---------------------------------------------------------------|

e|---------------------------------------------------------------|
B|---------------------------------------------------------------| x3
G|---------------------------------------------------------------|
D|---------------------------------------------------------------|
A|-7-7-7-7/3-3-3-3/6-6-6-6/2-2-2-2--------------------------------|
E|-7-7-7-7/3-3-3-3/6-6-6-6/2-2-2-2--------------------------------|

e|---------------------------------------------------------------|
B|---------------------------------------------------------------| x1
G|---------------------------------------------------------------|
D|---------------------------------------------------------------|
A|-7/-3/-6/-2----------------------------------------------------|
E|-7/-3/-6/-2----------------------------------------------------|

e|---------------------------------------------------------------|
B|---------------------------------------------------------------| x2
G|---------------------------------------------------------------|
D|---------------------------------------------------------------|
A|-0-00-0-0-0-3333-1111------------------------------------------|
E|-0-00-0-0-0-3333-1111------------------------------------------|

e|---------------------------------------------------------------|
B|---------------------------------------------------------------| x1
G|---------------------------------------------------------------|
D|---------------------------------------------------------------|
A|-0-00-0-0-0-00000----------------------------------------------|
E|-0-00-0-0-0-00000----------------------------------------------|

e|---------------------------------------------------------------|
B|---------------------------------------------------------------|
G|---------------------------------------------------------------| x2
D|---------------------------------------------------------------|
A|--77777777888888887777777777777777-----------------------------|
E|--55555555555555558888888877777777-----------------------------|


e|---------------------------------------------------------------|
B|---------------------------------------------------------------|
G|---------------------------------------------------------------| x2
D|---------------------------------------------------------------|
A|-2-4-5-4-2---2-4-5-4-2---2-4-5-4-2---2-4-5-4-0-2---------------|
E|-----------3-----------2-----------3---------------------------|

e|---------------------------------------------------------------|
B|---------------------------------------------------------------|
G|---------------------------------------------------------------| x2
D|---------------------------------------------------------------|
A|-2--4-5-1--3-4-0--2-3--7-5-7-3-5-1-----------------------------|
E|---------------------------------------------------------------|

e|---------------------------------------------------------------|
B|---------------------------------------------------------------| x3
G|---------------------------------------------------------------|
D|---------------------------------------------------------------|
A|-7-7-7-7/3-3-3-3/6-6-6-6/2-2-2-2--------------------------------|
E|-7-7-7-7/3-3-3-3/6-6-6-6/2-2-2-2--------------------------------|

e|---------------------------------------------------------------|
B|---------------------------------------------------------------| x1
G|---------------------------------------------------------------|
D|---------------------------------------------------------------|
A|-7/-3/-6/-2----------------------------------------------------|
E|-7/-3/-6/-2----------------------------------------------------|

e|---------------------------------------------------------------|
B|---------------------------------------------------------------|
G|---------------------------------------------------------------| x2
D|---------------------------------------------------------------|
A|-77777777888888887777777777777777-----------------------------|
E|-55555555555555558888888877777777-----------------------------|

e|---------------------------------------------------------------|
B|---------------------------------------------------------------| x2
G|---------------------------------------------------------------|
D|---------------------------------------------------------------|
A|-7777888877775555----------------------------------------------|
E|-5555555555555555----------------------------------------------|

e|---------------------------------------------------------------|
B|---------------------------------------------------------------| x1
G|---------------------------------------------------------------|
D|-----------------------5---------------------------------------|
A|-7778887775---777888777----------------------------------------|
E|-5555555555---555555555----------------------------------------|


| / slide

copyright 2006

Rankles
01-25-2006, 04:39 AM
Wrong forum buddy. Try riffs and recordings.

EDIT - Magicman moved it.

Well, title your threads correctly please. I think you could do with reading some FAQ's.