my solo for a song in Am


PDA

View Full Version : my solo for a song in Am


TasianSensation
01-26-2006, 05:22 PM
^topic.... please keep in mind that i started guitar 2 months ago...

e ---------------------------------------------------------------------------------------------------------
B ----------------12-----------------------------12-11-15---------------------------12--12-12-12-11-12----
G --9-12--14--------14-12-9----9-12--14---------------14-12---12-14-12-----------------------------12
D ---------------------------------------------------------------------------------------------------------
A ---------------------------------------------------------------------------------------------------------
E ---------------------------------------------------------------------------------------------------------

e ----------------------------------10-8---6-----------------------------------------------------------
B ---------------------------10-8--------------6-----------------------------------------------------
G ---9-12-9-- 7-----9-9----------------------------5--7-7--7---------------------------------------
D ---------------------------------------------------------------0---------------------------------------
A--------------------------------------------------------------------------------------------------------
E ------------------------------------------------------------------------------------------------------


well? what do you think?

EDIT: this is also my first tab :)

fretles57
01-26-2006, 05:36 PM
It'd be better if u read this http://www.ultimate-guitar.com/forum/announcement.php?f=46#2.2

TasianSensation
01-26-2006, 06:04 PM
ok... i will read it soon. thanks for the tip

Pure_Morning
01-27-2006, 06:33 AM
Unless you read and follow the instructions from http://www.ultimate-guitar.com/forum/announcement.php?f=46#2.2 your thread will be closed.