"The Follower", Acoustic riff [TAB]


PDA

View Full Version : "The Follower", Acoustic riff [TAB]


Alien_from_a_cd
01-29-2006, 11:40 AM
I think it sounds pretty nice. :)


e|---------------------------------------------------|
B|---------------------------------------------------|
G|-------2-----------------2-------0-------2-------0-|
D|---2-----2-------------2---2---2---2---4-------2---|
A|-0---0-----0-2-3-2---0-------3-------5-----5-3-----|
E|-------------------3-------------------------------|

e|-----------------------------------------------
B|-----------------------------------------------
G|-----0-----2---2---4---4---5---5---5---5---5---
D|---2---2-3---3---5---5---7---7---7---6---5-----
A|-3---------------------------------------------
E|-----------------------------------------------

e|------------------------------------------------~-|
B|------------------------------------------------~-|
G|-5---5---5---5---5---5---5---5---5---5-------5-5~-|
D|---5---4---3-------3---2---0-------3---3---3---5~-|
A|-----------------------------------------5-----3~-|
E|------------------------------------------------~-|

merfsullivan
01-29-2006, 11:51 AM
That's pretty good.

jusp75
01-29-2006, 02:12 PM
cool

Suffocation
01-29-2006, 03:55 PM
yeah, thats awsome