two acoustic riffs(Tab)


PDA

View Full Version : two acoustic riffs(Tab)


Fender_Strat_50
01-29-2006, 01:59 PM
heres two riffs that i want to make songs out of... tell me if you think there alright or not.

On this one you can keep your fingers in the D chord position and just move your index finger, whenever needed.


http://www.ultimate-guitar.com/forum/announcement.php?f=46#2.2

Garb
01-29-2006, 02:01 PM
Codes work wonders... [C ODE] *tab here* [/CO DE] minus the spaces..

:no: :peace: :no:

Fender_Strat_50
01-29-2006, 02:04 PM
oh.. can you not see it?
I didnt know how to do it.

They can't see it now... and you can click the link in your first post to find out how to do it right.

In case you have trouble seeing it... its http://www.ultimate-guitar.com/forum/announcement.php?f=46#2.2

steamin'
01-29-2006, 02:21 PM
they sound pretty cool, should be quite easy to generate a full song from them, have fun with that

Garb
01-29-2006, 02:22 PM
No, we can see it, just hard to read..Here I'll help you out..


e------------2----------------------2---------------------2---------------------0--------
b-------3------3---3----------3------3----3-------3------3----3--------3------3---3------
g----2----2------2---------0----0------0-------0----0------0--------0----0------0--------
d-0-----------------------2--------------------------------------------------------------
a------------------------------------------------2---------------------------------------
E----------------------------------------------------------------------3-----------------

e--------------------------------------------------------
b----------0-------------0-------------0---------------0-
g-------0---0--0-----0---0--0-----0---0--0------0----0--0
d-----2--2---2---- 0--0---0-----0--0---0------2--2----2--
a---3----------------------------------------------------
E------------------3-------------2--------------0--------

There..Dunno if that's how it's supposed ot be read though..

Suffocation
01-29-2006, 03:57 PM
the second one sounds awsome on acoustic..