our tab


PDA

View Full Version : our tab


pooperscooper
01-29-2006, 06:39 PM
my frend and i made a tab, i need a name for the song and i wanted 2 know if any 1 liked it. :confused:



^BEND |
/SLIDE DOWN|
\SLIDE UP |
h HAMMER ON| [ "noname " ] by:kenny pohorence&ryan marek
p PALM MUTE|
~ VIBRATO |


PLAY WITH DISTORTION GUITAR #1
e]--------------------------9----9----9----9---------------------------9----9----9---9|
b]----9----9----9----9---9----9----9----9--------9----9----9----9-----9----9----9---9--|
g]--9----9----9----9----9-9--9-9--9-9--9-9----9----9----9----9----9-9--9-9--9-9-9-9-|
d]-9-9--9-9--9-9--9-9------------------------9-9--9-9--9-9--9-9---------------------|
a]----------------------------------------------------------------------------------|
e]----------------------------------------------------------------------------------|


PLAY WITHOUT DISTORTION
e]----------------------------------------------------------------------------------|
b]----------------------------------------------------------------------------------|
g]---------------------------9----9----9----9--------------------------9----9----9---9|
d]----9----9----9----9---9----9----9----9---------9----9----9---9----9----9----9---9--|
a]--9----9----9----9----9-9--9-9--9-9--9-9----9----9----9----9----9-9--9-9--9-9-9-9-|
e]-9-9--9-9--9-9--9-9------------------------9-9--9-9--9-9--9-9---------------------|


PLAY WITHOUT DISTORTION
e]-1-1-1-1-3-3-3-3-0-0-0-0-5-5-5-5-3-3-3-3-1-1-1-1-0-0-0-0-1-1-1-1-5-5-5-5-0-0-0-0-9-0|
b]-----------------------------------------------------------------------------------0|
g]-----------------------------------------------------------------------------------0|X2
d]------------------------------------------------------------------------------------|
a]------------------------------------------------------------------------------------|
e]------------------------------------------------------------------------------------|


PLAY WITH DISTORTION GUITAR#2
e]----------------------------------------------------------------|
b]----------------------------------------------------------------|
g]-44-33--55-22--66-77--77-55--88-77--55-33--88-8/9--99-9\8--66-00|X3
d]-44-33--55-22--66-77--77-55--88-77--55-33--88-8/9--99-9\8--66-00|
a]-44-33--55-22--66-77--77-55--88-77--55-33--88-8/9--99-9\8--66-00|
d]----------------------------------------------------------------|

PLAY WITHOUT DISTORTION GUITAR#1
e]-1-1-1-1-3-3-3-3-0-0-0-0-5-5-5-5-3-3-3-3-1-1-1-1-0-0-0-0-5-5-5-5-0-0-0-0-9-0|
b]-0-0-0-0-0-0-0-0-0-0-0-0-0-0-0-0-0-0-0-0-0-0-0-0-0-0-0-0-0-0-0-0-0-0-0-0-0-0|
g]---------------------------------------------------------------------------0| X2
d]----------------------------------------------------------------------------|
a]----------------------------------------------------------------------------|
e]----------------------------------------------------------------------------|
PLAY WITH DISTORTION
E]---17--19------12-------12----------------16-16-14-----14/9~17-------------0|
B]-15--15------13--13-------16-16-14-------------------16---9----13-15-14---00|
G]---------0-12------12-0-----------16-16-14--------16------9---9--9--9--9-9-0|
D]----------------------------------------------------------------------------|
A]----------------------------------------------------------------------------|
E]----------------------------------------------------------------------------|

PLAY WITH DISTORTION GUITAR#2
e]-0-0----------------------------------15-15-16-16-14-14-0-0-15-15-13-0-0----|
b]----15-15-16-16-14-14-0-0-15-15-13-0-0--------------------------------------|
g]----------------------------------------------------------------------------|
d]----------------------------------------------------------------------------|
a]----------------------------------------------------------------------------|
d]----------------------------------------------------------------------------|

PLAY WITH DISTORTION GUITAR#2
e]-----------------------------------------------------------------------------|
b]-----------------------------------------------------------------------------|
g]-44-43--55-52--66-67--77-75--88-87--55-53--88-8/9--99-9\8--66-60-------------|
d]-44-43--55-52--66-67--77-75--88-87--55-53--88-8/9--99-9\8--66-60-------------|
a]-44-43--55-52--66-67--77-75--88-87--55-53--88-8/9--99-9\8--66-60-------------|
d]-----------------------------------------------------------------------------|


PLAY WITHOUT DISTORTION GUITAR#1
e]-1-1-1-1-3-3-3-3-0-0-0-0-5-5-5-5-3-3-3-3-1-1-1-1-0-0-0-0-5-5-5-5-0-0-0-0-9-0-|
b]---------------------------------------------------------------------------0-|
g]---------------------------------------------------------------------------0-|
d]-----------------------------------------------------------------------------|
a]-----------------------------------------------------------------------------|
e]-----------------------------------------------------------------------------|

PLAY SLOW
GUITAR#1 WITHOUT DISTORTION GUITAR#2 WITHOUT DISTORTION,BOTH GUITARS AT SAME TIME
e]e]-------------------------------------------------------------------------------|
b]b]-------------------------------------------------------------------------------|
g]g]-------------------------------------------------------------------------------|
d]d]-----9-----9------9----9----0-----------------------------------------------|
a]a]---9------9------9----9-----0-----------------------------------------------|
e]d]--9-9---9-9---9-9--9-9----0-----------------------------------------------|





THE END

zeppelinfan2009
01-29-2006, 06:45 PM
wrong forum

Milligram Smile
01-29-2006, 06:52 PM
Use code so that its actually readable....becuase the way that it is now, its impossible to read

pooperscooper
01-29-2006, 08:10 PM
i no it got fuked up

pooperscooper
01-30-2006, 07:29 PM
what do u meen??

Gutch220
01-30-2006, 07:54 PM
try it in double drop d

d
b
g
d
a
d

pooperscooper
02-02-2006, 09:30 PM
k thanks its my first tab tho me and my frend were just messin around im only 11

pooperscooper
02-02-2006, 09:33 PM
do u have any ideas for a song name??????? :confused: