critt for critt


PDA

View Full Version : critt for critt


THC
01-29-2006, 08:46 PM
e|----------------------------------------------------------------------------|
B|----------------------------------------------------------------------------|
G|-----------------------------------------------------5v--------------------| zeros pm
D|-----------------------------------------------5--8------------------------|
A|------2-------2----------2-------2----5h6p------------------------------|
D|000----000------000---000--------------------------------------------| x3

e|----------------------------------------------------------------------------|
B|----------------------------------------------------------------------------|
G|----------------------------------------------------------------------------| zeros pm
D|----------------------------------------------0h1h3--0h1h2p-----------|
A|------2-------2----------2-------2--0h1h3------------------0h1h2p---| once then back to riff ^
D|000----000------000---000--------------------------------------------|

pinch harmonic and vibrato on the last note on the first riff you do x3. so first riff x3 then just other riff and go back to the start and so foruth. its just a riff i made critt for critt.

hthedinga
01-29-2006, 09:06 PM
You should click and read the following: http://www.ultimate-guitar.com/forum/announcement.php?f=46#2.2

Worst title I've ever seen. Not only is reading "crit" annoying, but you spelled it differently and used it twice in your tiitle. As for the riff, it's hard to know without a rhythm. The first part with the 0s and 2s doesn't sound good and the parts after them aren't good either. It seems like they have some direction, but maybe just not good notes. Maybe this riff would sound better not in drop d? Better, but still not good. Either use code or use the font courier new for the tabs. They're much easier to read and indicate rhythms that way. If you don't hate me now and would like to critique one of my songs, you might try the one in my signature.