[TAB]Rueful Lullaby


PDA

View Full Version : [TAB]Rueful Lullaby


Stacked Actors
01-30-2006, 12:21 AM
Meant for acoustic


e|---------3-------|
B|-----3-----3---3-|
G|---2---2-----2---|
D|-0---------------|
A|-----------------|
E|-----------------|

Use that picking pattern for these chords

e|--3--2--2--2--| X2
B|--3--3--2--1--|
G|--2--2--2--2--|
D|--0--0--0--0--|
A|--------------|
E|--------------|
Dsus D Dmaj7 D7