Cool Little Harmony Riff


PDA

View Full Version : Cool Little Harmony Riff


SethMegadefan
02-03-2006, 06:30 PM
Here's just a little thing I threw together for my guitar teacher (have to go to lessons in about fifteen minutes here)... we're learning harmonizing and stuff and I just thought I'd post what I made so far. It was made on notepad so I don't know if the code's gonna screw it up or not, but ah well, here it is:

Q E E E E E E E H E Q Q E E E E E E E H E Q Q
|----------------|*---------------|----------------|-----------------|----------------|
|--------------4-|--3-1---1-4-3-1-|(1)-----1-1---3-|---1-------3-1---|--------------1-|
|----------------|------3---------|----------------|-----3-1-3-----3-|(3)-----3-3-----|
|----------------|----------------|----------------|-----------------|----------------|
|----------------|----------------|----------------|-----------------|----------------|
|----------------|*---------------|----------------|-----------------|----------------|

E E E E E E E Q E Q Q. Q E Q Q. Q E Q E
|----------------|----------------|----------------|----------------*|
|----------1-----|----------------|----------------|---------------4-|
|--3-1-0-1---3-1-|(1)-----1-1---0-|----0---0-0---3-|---3------3-3----|
|----------------|----------------|----------------|-----------------|
|----------------|----------------|----------------|-----------------|
|----------------|----------------|----------------|----------------*|

HARMONY (same rhythm)
|----------------|*---------------|----------------|-----------------|-----------------|
|--------------8-|--6-------8-6---|--------------6-|-----------6-----|-----------------|
|----------------|----8-7-8-----8-|(8)-----8-8-----|---8-7-5-7---8-7-|(7)-----7-7----8-|
|----------------|----------------|----------------|-----------------|-----------------|
|----------------|----------------|----------------|-----------------|-----------------|
|----------------|*---------------|----------------|-----------------|-----------------|

|----------------|----------------|----------------|---------------*|
|----------------|----------------|----------------|--------------8-|
|--7-5---5-8-7-5-|(5)-----5-5---4-|----4---4-4---7-|----7---7-7-----|
|------8---------|----------------|----------------|----------------|
|----------------|----------------|----------------|----------------|
|----------------|----------------|----------------|---------------*|

Sorry if it's distorted. I will try to fix it immediately if it is, though.