nifty little fill


PDA

View Full Version : nifty little fill


somebody_123
02-04-2006, 04:01 PM
check out this fill idea:

e|-------------------------------------------|
B|-------------------10h11p10----------------|
G|-------------10h12----------12-10-9--------|
D|-------10h12------------------------10/12~-|
A|-10h12-------------------------------------|
E|-------------------------------------------|

i was kinda jamming away, and made this up
comments/crits?

dumpweed
02-04-2006, 04:10 PM
Thats a damn niffty little fill, Ive got loads a fills like this i could post but I cant really be bothered :D

We_Wont_Die
02-04-2006, 07:34 PM
**** yeah!

Evian
02-04-2006, 08:02 PM
Really bland. Nothing too interesting.

somebody_123
02-04-2006, 08:26 PM
^ any particular reason?
i don't mind that you think it's bland, i just want to know why, so i can (maybe) improve it

dumpweed
02-05-2006, 05:13 AM
This is one of my little fills, its not bad, when you get the right timing

Iknow it looks easy but it does sound quite good


e|-------------------7^-----------|
b|---3/5---3---5-----------------|
g|---------------------------------|
d|---------------------------------|
a|---------------------------------|
e|---------------------------------|

e|-------------------5^-----------| ^ = bend
b|---3/5---3---5-----------------| / = slide
g|---------------------------------|
d|---------------------------------|
a|---------------------------------|
e|---------------------------------|

I think it's quite a nice little fill, you just have to figure out your own timing
:D

ToolBass_dude
02-05-2006, 05:28 AM
eeh...it was ok, but was it meant to be fast or slow(so i can play it in the right context)?

:)

SethMegadefan
02-05-2006, 11:06 AM
I was expecting it to be dull from the looks of it, but I like the way it ends. It really wraps it up nice. Nifty indeed!

dumpweed
02-05-2006, 11:32 AM
I was expecting it to be dull from the looks of it, but I like the way it ends. It really wraps it up nice. Nifty indeed!

Who's? Mine or the thread starters?

SethMegadefan
02-05-2006, 11:34 AM
^Threadstarter's. To be honest, I haven't even tried yours yet.

dumpweed
02-05-2006, 11:37 AM
^Threadstarter's. To be honest, I haven't even tried yours yet.


Mines really nothing special, i made it up when i was just chilling, in about 2 seconds,
its really the timing with mine.

SethMegadefan
02-05-2006, 11:40 AM
^Okay, I just tried it. It's alright, I guess, but like you said, it's nothing special. I just liked how the threadstarter's one ended so nice. Almost reminded me of Megaman, for some stupid reason.

Rox0r713
02-05-2006, 12:30 PM
Hmm, interesting. So these are "nifty" sounding mini-riffs (or fillers)? Ok, how's this:

e|-----------------------------------------------|
B|-----------------------------------------------|
G|-----------------------------------------------|
D|---------8p7---5------5h7---8p7---5------------|
A|-5h7---------------7----------------------7----|
E|-----------------------------------------------|

I wrote that right now, just for you. :cool: <3 Enjoy.

Note: Pause for a tick between the 2nd 5h7 and the 2nd 8p7. Sounds better.

SethMegadefan
02-05-2006, 12:35 PM
Note: I don't know how to make those boxes you put yours in. How do I?
You have to put it in code tags. Like [ code ] this [ /code ], only without the spaces.
This is coded.
Chances are it'll end up looking bad unless you make it in Notepad or something first and then copy/paste it in. There's a more in-depth explaination of it somewhere in the FAQ, but that's the general idea.

Rox0r713
02-05-2006, 12:39 PM
You have to put it in code tags. Like [ code ] this [ /code ], only without the spaces.
This is coded.
Chances are it'll end up looking bad unless you make it in Notepad or something first and then copy/paste it in. There's a more in-depth explaination of it somewhere in the FAQ, but that's the general idea.

Thanks, gotcha. :)

somebody_123
02-05-2006, 10:08 PM
Originally Posted by ToolBass_dude
eeh...it was ok, but was it meant to be fast or slow(so i can play it in the right context)?

:)
If you're asking me, it should be played fast.