A short little intro I wrote..


PDA

View Full Version : A short little intro I wrote..


Garb
02-05-2006, 04:07 PM
e|---------------------------------
B|---------------------------------
G|--------------------------------- Repeat 3 times.
D|2-2-2-2-5-5-5-5-7-7-7-7-9-9-9-9\2
A|2-2-2-2-5-5-5-5-7-7-7-7-9-9-9-9\2
E|-0-0-0---0-0-0---0-0-0---0-0-0---
P M . . . . . . . . . .


Once again recording in my info, Intro...

Don't bleed too much...

Kreatallica
02-07-2006, 10:39 PM
dude sorry its just not that good. sounds too much like your just running up a scale or something. it could be cool if you wrote a lead over it and used this as the rhythm though.

\m/metallica\m/
02-09-2006, 06:21 PM
Yeah, im not that big of a fan of that either, like Kreatallica said, your just running up the fret board, i tried to make it a little more unique, Its pretty decent here, its also played in drop D

e|--------------------------------------------------
b|--------------------------------------------------
g|--------------------------------------------------
d|--4-4--4--4-7--7--7-2--2--2-4--4--4---------------
a|--2-2--2--2-5--5--5-0--0--0-2--2--2---2-----------
D|00-0-00-00-0-00-00-0-00-00-0-00-00--3-2-----------
:: : :: :: : :: :: : :: :: : :: :: *


P.M.- :
Pinch Harmonic - *

Rate my tab here http://www.ultimate-guitar.com/forum/showthread.php?t=317159

leo_p8
02-10-2006, 04:01 PM
I like the original better than \m/metallica\m/'s thing. I just think you need to add some more fill to it. I don't know, tremolo the open E and slide across the neck. I agree with Kreatallica in regard to changing it a little so it doesn't sound like a scale. You can do that by simply adding a short fill before you start the next bar.