Some of my stuff [tab]


PDA

View Full Version : Some of my stuff [tab]


Dr. No
02-05-2006, 06:00 PM
Heres some various pentatonic stuff I've created.

x = upstroke mute
X = downstroke mute
/ = slide
h = hammer on

Light distortion

Just place freting fingers on strings with no pressure

e|x---x---x---x
B|x---x---x---x
G|x---x---x---x
D|x---x---x---x
A|x---x---x---x
E|x-X-x-X-x---X

e|------------------------------------
B|-------------------------------------
G|---------5-7-5-7--7-7----------------
D|-12/5h7-----------7-7------2-5-2-5-5-5
A|------------------5-5?-3h5---------5-5
E|-----------------------------------3-3

------------------------------------------------

p = pull-off
h = hammer

The fourths are all upstroked

I play it clean, distortion sounds ok

e|--------------------------------------------
B|--------------------------------------------
G|---------------------------------------------
D|---5-5-5-5?-3-3-3-3-------------3/5~p0
A|---5-5-5-5?-3-3-3-3-(x3)?5p0-3h5--
E|---------------------------------------------


I would like comments/suggestions on them, how to improve, and what to do next. Thanks.

dimebag7
02-05-2006, 06:09 PM
Its alright not my grenre, so i wouldnt know what to add or anything.

Dr. No
02-05-2006, 06:18 PM
Alright, thanks anyways.