Euphoria [TAB]


PDA

View Full Version : Euphoria [TAB]


dopey_toad
02-06-2006, 04:32 PM
> >
E E E E E E E E E E E E E E E E
E||--------------------------|--------------------------|
B||--------------0-----------|--------------0-----------|
G||--------9--------9-----9--|--------9--------9-----9--|
D||-----6-----6--------6-----|-----6-----6--------6-----|
A||--7-----------------------|--7-----------------------|
E||--------------------------|--------------------------|


> >
E E E E E E E E E E E E E E E E
--------------------------|--------------------------|
--------------0-----------|--------------0-----------|
--------6--------6-----6--|--------6--------6-----6--|
-----7-----7--------7-----|-----7-----7--------7-----|
--7-----------------------|--7-----------------------|
--------------------------|--------------------------|


> >
E E E E E E E E E E E E E E E E
--------------0-----------|--------------0-----------|
--------3--------3-----3--|--------3--------3-----3--|
-----2-----2--------2-----|-----2-----2--------2-----|
--0-----------------------|--0-----------------------|
--------------------------|--------------------------|
--------------------------|--------------------------|


v ^ v ^ v ^ v ^ v
E E E E E E E E E E E E E E E E Q E Q E E E
--------------0--------2--|--------3--3--3--2--2--2--|--2----2--2----2--2--2--|
--------3-----------3-----|-----3-----------3--3--3--|--3----3--3----3--3--3--|
-----2-----2-----2--------|--2--------------2--2--2--|--2----2--2----2--2--2--|
--0-----------------------|-----------------0--0--0--|--0----0--0----0--0--0--|
--------------------------|--------------------------|------------------------|
--------------------------|--------------------------|------------------------|


^ v ^ v ^ v ^ v ^ v ^ v ^ v ^ v ^ v
Q E Q E E E Q E Q E E E Q E Q E E E
--0----0--0----0--0--0--|--2----2--2----2--2--2--|--3----3--3----3--3--3--||
--3----3--3----3--3--3--|--3----3--3----3--3--3--|--3----3--3----3--3--3--||
--2----2--2----2--2--2--|--2----2--2----2--2--2--|--2----2--2----2--2--2--||
--0----0--0----0--0--0--|--0----0--0----0--0--0--|--0----0--0----0--0--0--||
------------------------|------------------------|------------------------||
------------------------|------------------------|------------------------||

Nole07
02-06-2006, 11:25 PM
meh sounds sorta too happy for me, but if you like that stuff cool, but it was pretty good dude

sr.rockalot
02-11-2006, 02:00 PM
good.