How do I get tab on here


PDA

View Full Version : How do I get tab on here


Hypnotize03
02-11-2006, 01:18 AM
Sorry just joined, I'm not sure how to import the tab onto the message if someone could help that'd be great, thanks.

LEPIV
02-11-2006, 01:58 AM
Ctrl+C Ctrl+V Copy, Paste.

Ex.

Verse 1:
Hey, hey mama,said the way you move, gon-na make you sweat, gon-na make you groove,
Guitars 1 and 2* A5
|-----------------------------------------------------------------------------------|
|-------------------------------5---------------------------------------------------|
|-----------------5^~--------7-----5--7hp5--------5^~-------------------------------|
|-----5--6--7-----------7-------------------7--7--------7----5--7--7-------------2--|
|--7-----------7------------------------------------------------------5--7\3--5--0--|
|-----------------------------------------------------------------------------------|
*Guitar 2 enters and sustains its A5 chord into Verse 2.

Garb
02-11-2006, 10:03 AM
^ Except not really... Do this... [ CODE ] ctrl+c ctrl+v [/ CODE ](without spaces).. It'll look like this...

e|--7-4----------------7-4----------------7-4--------------
B|-7---4--------------7---4--------------7---4-------------
G|7-----4-6--6-4-----7-----4-6--6-4-----7-----4-6--6-4-----
D|----------6---4--------------6---4--------------6---4----
A|---------6-----4-6----------6-----4-6----------6-----4-6-
E|---------------------------------------------------------

Bill43
02-12-2006, 10:59 AM
There's a FAQ right at the very top of this forum with an answer to your question right there in it.

Instead of you having to figure out where it might be in the FAQ... here's a direct link to the portion of the FAQ you're asking about: http://www.ultimate-guitar.com/forum/announcement.php?f=46#2.2

Click that and follow the directions given and you'll do just fine.