Metal Riff [tab]


PDA

View Full Version : Metal Riff [tab]


dethhead
02-12-2006, 01:02 AM
3/4 7/4

D:---------|---------|---------|-------------|
A:---------|---------|---------|-------------|
F:--6-6-6--|--6-6-6--|--5-5-5--|--10---------|
C:--8-8-8--|--8-8-8--|--7-7-7--|----------3--|
G:---------|---------|---------|--------3----|
C:--8-8-8--|--8-8-8--|--7-7-7--|--11--7------|
PM ^ ^ ^ ^ ^ ^

4/4
D:---------------------------|----------------------|
A:---------------------------|----------------------|
F:---------------------------|----------------------|
C:---------------------------|----------------------|
G:--4-------------------1h5--|--4-------------------|
C:----5--5555--5555--2h5-----|----1--1111--1111--1--|
PM ^^^^ ^^^^ ^^^^ ^^^^
PH *

*'-'*
02-27-2006, 03:37 AM
I like the second riff, at least the way i'm playing it. but i don't like the first riff.

hotguitarist
03-01-2006, 05:31 AM
I think I've been banned forever for being a stupid asshole.

VANC3R
03-01-2006, 02:14 PM
I like it. Playing in Drop C is wicked