Cool Clean Riff


PDA

View Full Version : Cool Clean Riff


Andrew Zara
02-13-2006, 08:45 PM
This is a cool clean riff that I've been working on. It doesn't really fit as an intro but more like a bridge.Tell me what you think.

e|--------------------------------------------------------------------|
B|--------------------------------------------------------------------|
G|--------------------------------------------------------------------|
D|-------3----------------7---------------7---------------9-------| x2
A|----5-----5---------3-----3--------5------5---------7-----7----|
E|-7-----------7--5-----------5--3------------3--5------------5-|

e|---------------------------------------------------------------------------------------------|
B|---------------------------------------------------------------------------------------------|
G|---------------------------------------------------------------------------------------------|
D|-----------9--------------------12-------------------12------------------14-----------| x2
A|------10-----10------------9-------9-----------10-------10----------12-------12------|
E|-12---------------12--10--------------10--8-----------------8--10-----------------10-|

This is my first time using code so if it came out messed up I'll fix it later.Played kinda fast

PsychoFreak
02-14-2006, 06:37 AM
Powertab it. I can barely reach those notes without my hand ripping in two.

Andrew Zara
02-14-2006, 02:32 PM
Powertab it. I can barely reach those notes without my hand ripping in two.

Well, sorry if you can't play it. It's easy for me because I got big hands.

VANC3R
02-15-2006, 02:55 AM
i like it dude great tab

mistertich
02-17-2006, 07:25 PM
Very cool, I like it a lot. There's some changes I might suggest to make it a litle less awkward in some parts though, especially the beginning. Something like this:


e|--------------------------------------------------------------------|
B|--------------------------------------------------------------------|
G|--------------------------------------------------------------------|
D|-------4----------------7---------------7---------------7-----------| x2
A|----5-----5---------4-----4--------5------5---------7-----7---------|
E|-7-----------7--5-----------5--3------------3--5------------5-------|

e|---------------------------------------------------------------------------------------|
B|---------------------------------------------------------------------------------------|
G|---------------------------------------------------------------------------------------| x2
D|-----------9--------------------12-------------------12------------------12------------|
A|------10-----10------------9-------9-----------10-------10----------12-------12--------|
E|-12---------------12--10--------------10--8-----------------8--10-----------------10---|




Check out mine? http://www.ultimate-guitar.com/forum/showthread.php?t=320727

Gohex
03-05-2006, 04:14 PM
Quite good
I like it
Not much but still :P