Who Sings This Song??


PDA

View Full Version : Who Sings This Song??


Oasis-fanatic
06-30-2006, 12:16 PM
who sings this song and whats it called play it and you should recognise it

e-------------------------------------------------|
B-------------------------------------------------|
G-------------------------------------------------|
D-14-14-12-14--------------------------------|
A-------------------14-13-12-0-10-7---------|
E-------------------------------------------------|

thats basically it sorry if its untidy but this is bugging me

i was told it was cocaine by Eric Clapton :S

guitarshark2099
06-30-2006, 12:21 PM
looks like sunshine of your love from the tab..

Mcut202
06-30-2006, 12:24 PM
It's sunshine of your love but played wrong

Oasis-fanatic
06-30-2006, 12:25 PM
lol cheers

Gunther117
06-30-2006, 12:25 PM
Its Sunshine Of Your Love by Cream :)

Oasis-fanatic
06-30-2006, 12:25 PM
i know the 2nd bits power chords on A but thats how i play that beginning

thx for settling a lot of arguments xD

Toilets
06-30-2006, 12:41 PM
Sunshine Of Your Love, only tabbed wrong.

It should also use the low E string.

Paddles
06-30-2006, 01:31 PM
If you're curious, the proper way to play the song's verse is something like this:

D ----12-12-10-12----------------------------
A -----------------------12-11-10--------------
E ------------------------------------10-14b-10