Can someone please help me on the solo to Iron Ma?


PDA

View Full Version : Can someone please help me on the solo to Iron Ma?


fattypumbaa
07-31-2006, 01:32 AM
please someone help me on ironman i just would like a correct tab or a video of someone playing it because i cant get it down i would greatly appreciate the help

wilty00
07-31-2006, 02:20 AM
1st Solo : (3:17)

e-----------------------------------------------------------|
b-----------------------------------------------------------|
g---------------------------------------------9--(9)--------|
d----------------------------------9--9--9h11-----11--11p9--|
a-------7--7h9--9p7-----7--9--9/11--------------------------|
e--7-h9--------------9--------------------------------------|

e----------------------------------------9---------------------|
b-----------------------------------9------12p9----9-----------|
g-----9--9-------------------x--11--11b---------11-9-9--9b(10)-|
d----------11p9----9h11--11------------------------------------|
a-11------------11---------------------------------------------|
e--------------------------------------------------------------|

e-------------------------9--------------------------------------|
b----------------------9----12p9-------9-12p9------9--12-12b(14)-|
g--------------9--11b--9---------11p9---------11p9-------12b(13)-|
d-11--9--9h11----------------------------------------------------|
a----------------------------------------------------------------|
e----------------------------------------------------------------|

e-9-----------12b(13)-12b14r12-12b13r12-9h12p9----9---------|
b---12--9--9-----------------------------------12---12-12b--|
g-----------------------------------------------------------|
d-----------------------------------------------------------|
a-----------------------------------------------------------|
e-----------------------------------------------------------|

e-----9---------------------------------------------------|
b-12b---12p9------9--12p9---------------------------------|
g------------11b--9--------11--11p9-----9--9--------------|
d------------------------------------11------11p9----9h11-|
a-------------------------------------------------11------|
e---------------------------------------------------------|

e------------------------------------------------------------|
b----------------------0-------------------------------------|
g-9--9--------------9----------------------------------------|
d------11p9----9h11-------9h11--9h11--9h11--9h11--9h11--9h11-|
a-----------11-----------------------------------------------|
e------------------------------------------------------------|

e--------------------------------------------------------------------|
b--------------------------------------------------------------------|
g--------------------------------------------------------------------|
d-9h11--9h11--9h11--9h11--9h11--9h11---11--9-------------------------|
a---------------------------------------------11-10--9--7------------|
e----------------------------------------------------------7--7h9--9-|

Solo 2 :
full
e--------^---------|
b-------^--^-------|
g------1/2---^-----|
d--2--^-------2^---| REPEAT
a----^-------------|
e--0^---------0----|
*
bend down behind nut (Where you tune your strings)

e-----------------------------------------------------------------------|
b-----------------------------------------------------------------------|
go---------------------------------------------------------------------o|
do------------------------------------------------4--5--4---5--4h5p4---o|
a--7__p5--7vvvvvv---5h7p5vvvvvv---7__p5--7vvvvvv---------------------5--|
e-----------------------------------------------------------------------|

e-------------------------------------------------------------|
b-------------------------------------------------------------|
g---------------------7-----7--9--9b(12)---9b(12)---9b(12)r9--|
d--------5------7//9-----9------------------------------------|
a--5/7-------7------------------------------------------------|
e-------------------------------------------------------------|

e--------------------------------10--10h12--12b--12b--12br12p10-12p10-|
b--------------------8----10//12--------------------------------------|
g--7-----7--h9vvvvv-----9---------------------------------------------|
d-----9---------------------------------------------------------------|
a---------------------------------------------------------------------|
e---------------------------------------------------------------------|

e-10-------------------------------------------------------|
b----12--12\\10--8//10--8----------------------------------|
g--------------------------9--7----------------------------|
d---------------------------------9\7--5--7p5----5h7-------|
a---------------------------------------------7------5h7---|
e----------------------------------------------------------|

e------------------------------------------------------------|
b------------------------------------------------------------|
g--------------7-----7--9--9b(12)---9b(12)---9b(12)---9b(12)-|
d--5--7--7//9-----9------------------------------------------|
a------------------------------------------------------------|
e------------------------------------------------------------|

e-----------------------------------------------------------|
b-----------------------------------------------------------|
g--7h9p7----7-----------------------------------------------|
d--------9-----9\7--5--7---5--7--7b(8)--7b(8)--7b(8)r--5----|
a---------------------------------------------------------7-|
e-----------------------------------------------------------|

e-----------------------------------------------------------------------|
b-----------------------------------------------------------------------|
go---------------------------------------------------------------------o|
do------------------------------------------------4--5--4---5--4h5p4---o|
a--7__p5--7vvvvvv---5h7p5vvvvvv---7__p5--7vvvvvv---------------------5--|
e-----------------------------------------------------------------------|

e----------|
b----------|
g----------|
d----------|
a-7__p5--7-|
e----------|

Jackoutofhell
07-31-2006, 02:27 AM
EDIT:

Excuse me.