Just an intro, i made real quick.


PDA

View Full Version : Just an intro, i made real quick.


TripleREffect
10-06-2006, 04:32 PM
|-----------|
|-----------|
|-----------|
|-00-12-12/-| x2
|-00-12-12/-|
|-00-12-12/-|
..

|----------------------------------|
|----------------------------------|
|----------------------------------|
|----1----3----5-------------------| x4
|----1----3----5--5-3h5p3----------|
|-00---00---00-----------5-3h5p3p0-|
.. .. ..


|----------------------------------------|
|----------------------------------------|
|----------------------------------------|
|-00-12-12/--------00-13-13/--00-12-12/--|
|-00-12-12/--(x2)--00-13-13/--00-12-12/--|
|-00-12-12/--------00-13-13/--00-12-12/--|
.. .. ..


|----------------------------------|
|----------------------------------|
|----------------------------------|
|----1----3----5-------------------| x4
|----1----3----5--5-3h5p3----------|
|-00---00---00-----------5-3h5p3p0-|
.. .. ..[/SIZE]

yeah i just was screwing around and came up with this, its in drop-C.
laskflkdsf
It sounded kind of decent too me, so i figured ide come on here and ask for some outside opinions.

shadowsoldier08
10-06-2006, 04:41 PM
wow thats friggen amazing, too bad it has no sound ya deusche bahg

Enter_Metal
10-06-2006, 04:43 PM
sound too original for me thankz for the rithmm:P

x_rox
10-06-2006, 04:43 PM
it's not exactly amazing. It's alright i suppose, just needs a kick of life.

Csquared1001
10-06-2006, 05:45 PM
yeah but it on guitar pro or midi or something. looks good though. Crit mine? it's called theme song(go front page)

Daarian
10-07-2006, 11:53 PM
sounds pretty metallica...ish...killer...

RedDeath9
10-08-2006, 12:04 AM
How fast is it played? I could probably tab it out on powertab or guitar pro. I also need to know the rythym...