Guitar Solo: Can it be done?


PDA

View Full Version : Guitar Solo: Can it be done?


BeatleLover1029
10-07-2006, 09:51 AM
Hi, i havent been playing guitar very long, and im not that good at soloing yet. this is a solo i wrote for a song, but seeing as how im not good enough to do it, i cant play it. it fits well with the song so i dont want to change too much if i dont have to.

so really what im asking of my fellow UGers is if they can play the solo, and therefore it is possible. if its impossible for the best guitarists here then ill change it i guess. i just want to know. because in a maybe this time next year ill be better at guitar, so i may be able to play it later, but not now


tempo = 120 beats per minute ( i put in guitar pro too, in case this is hard to read)

Guitar I
Q E E E E E E Q E E S S S S E E
E||-----------------------------|-------------------------------------|
B||-----------------------------|-------------------------------------|
G||-------10p--8--L-------------|-------------------------------------|
D||--8---------------12--L------|----------------------------13s--15--|
A||-------------------------13--|---L----13---------------13----------|
E||-----------------------------|------------13---L-15-17-------------|


Q S S S S Q. E E E E E E E E E
---------------------------------|-----------------------------------|
---------------------------------|-----------------------------------|
---------------------------------|---------------------------14--15--|
--15----17-15-13-----------------|-------------------13--15----------|
-----------------17-15~----------|-----------12--13------------------|
-----------------------------13--|--11s--13--------------------------|


|---3---|
E E Q. E S S S E E E E E E Q E
---------------------------------------|--------------------------------|
---------------------------------------|------------------15--13--------|
---Lbr---L---L------14-----------------|------15--------------------15--|
------------------------13h-15p-13-----|--13------13--15----------------|
-----------------------------------13--|--------------------------------|
---------------------------------------|--------------------------------|


E E E E Q. E S S S S S S S S S S S S E E
------------------------------|-----------------------------------------------||
------------------------------|-----------------------------------------------||
---L--14---L------------------|--------------------14-15----------16-17---L\--||
--------------15---L------15--|-----------13-15-17-------15-17-19-------------||
------------------------------|--13-15-17-------------------------------------||
------------------------------|-----------------------------------------------||




Duration Legend
---------------
W - whole
H - half
Q - quarter
E - 8th
S - 16th
T - 32nd
X - 64th
. - note dotted
|-n-| - n-tuplets


Tablature Legend
----------------
L - tied note
x - dead note
g - grace note
(n) - ghost note
> - accentuded note
NH - natural harmonic
AH - artificial harmonic
TH - tapped harmonic
SH - semi harmonic
PH - pitch harmonic
h - hammer on
p - pull off
b - bend
br - bendRelease
pb - preBend
pbr - preBendRelease
brb - bendReleaseBend
\n/ - tremolo bar dip
\n - tremolo bar dive
-/n - tremolo bar Release up
/n\ - tremolo bar inverted dip
/n - tremolo bar return
-\n - tremolo bar Release down
S - shift slide
s - legato slide
/ - slide into from below or out of upwards
\ - slide into from above or out of downwards
~ - vibrato
W - wide vibrato
tr - trill
TP - tremolo picking
T - tapping
S - slap
P - pop
< - fade in
^ - brush up
v - brush down

Owned
10-07-2006, 10:00 AM
if you practice this slowly, for about 10-15 minutes a day, you'll be playing it in no time.

~DrEaM ThEaTeR~
10-07-2006, 05:50 PM
yea its easily playable. ive been playin about 2 and a half years, and it wouldnt be difficult to learn

irishmatt1992
10-07-2006, 06:39 PM
easy

lester2215
10-07-2006, 11:34 PM
YEP can be done

lester2215
10-07-2006, 11:42 PM
u can get better easily in less than a year, just keep trying to play songs an things u cant do good at all, an keep trying over an over everyday, an i promise, u will be really good in less than 7 months

TORSION
10-08-2006, 12:05 AM
you should be able to play that no worries..

its not that hard.....at all

just practice it alot slowly with a metronome and then increase the speed gradually

Oasis-fanatic
10-08-2006, 02:34 PM
You wrote a solo you cant even play?pffft

well, sounds good anyway