How's this riff?


PDA

View Full Version : How's this riff?


Guitarist2673
10-13-2006, 07:09 PM
I came up with this riff but im not sure if it's good or not

Flummery
10-13-2006, 07:11 PM
what riff?

Guitarist2673
10-13-2006, 07:13 PM
e--------------------------- the chords are played really really short (pm=palm mute)
B---3-pm-3-pm----------
G---0-pm-2-pm-2-pm-2
D------------------2-pm-0
A---------------------------
E---------------------------

Guitarist2673
10-13-2006, 07:13 PM
that riff

yawn
10-13-2006, 07:14 PM
Pretty bland...

Guitarist2673
10-13-2006, 07:14 PM
srry it came out a little distorted

Guitarist2673
10-13-2006, 07:17 PM
like what?

yawn
10-13-2006, 07:18 PM
^ Maybe add some more notes. Right now, it's just "dum duh dum duh" and it's done.

Guitarist2673
10-13-2006, 07:23 PM
how about
--------------------------------------h3p0h2p05^
--3--3---------7^----3--3-------------------------
--0--2--2--2---------0--2--2--2-------------------
---------2--2----------------2--2-------------------
-----------------------------------------------------
-----------------------------------------------------

Guitarist2673
10-13-2006, 07:23 PM
then i'll work around that

Guitarist2673
10-13-2006, 07:28 PM
and maybe speed it up

aprescott_27
10-13-2006, 08:10 PM
^There's a thing called an edit button. Maybe you've seen it?

The riff is still pretty bland, though. Unless there is some killer rhythm that you haven't put in.

For future reference, you want to put TAB or something in the title of your thread so your thread doesn't get closed. And put in some information that's more than just what notes you play, like timing and tempo. Use [code ][/ code] tags (without the spaces) around your tab and it won't be distorted. Better yet, get PowerTab. You can download it for free, and it's loads better than even the best text tab.