[TAB] classic/metal/prog rock intro thing


PDA

View Full Version : [TAB] classic/metal/prog rock intro thing


TasianSensation
10-22-2006, 11:46 PM
here is something i just came up with. it should be sweep picked, but it's not necessary. i'm looking for some reviews on it and also wondering if someone could tell me what key it's in. thanks!

150 beats per minute

7/4 time Standard Tuning
h p p
/ \/ \ /_\
----------------11-12---11-12-11--9---0---|-------------8-9--8-9-8--5---0-|
--------------9---------------------------|-----------5-------------------|
------------9-----------------------------|---------5---------------------|
---------11-------------------------------|-------8-----------------------|
------11----------------------------------|-----8-------------------------|
----9-------------------------------------|---5---------------------------|
E E E E E E Q S S E Q Q (Same Rhythm Throughout)

--------------11-12---11-12-12--9--0----|------------9--11--9-11-9--7--0--|
------------9---------------------------|----------7----------------------|
----------9-----------------------------|--------8------------------------|
-------11-------------------------------|------9--------------------------|
----11----------------------------------|----9----------------------------|
--9-------------------------------------|--7------------------------------|

----------------11-12---11-12-11--9---0---|-------------8-9--8-9-8--5---0-|
--------------9---------------------------|-----------5-------------------|
------------9-----------------------------|---------5---------------------|
---------11-------------------------------|-------8-----------------------|
------11----------------------------------|-----8-------------------------|
----9-------------------------------------|---5---------------------------|

-----------------14--16---14-16-14--12--0-|------------9--11--9-11-9--7--0--|
--------------12--------------------------|----------7----------------------|
-----------13-----------------------------|--------8------------------------|
--------14--------------------------------|------9--------------------------|
-----14-----------------------------------|----9----------------------------|
--12--------------------------------------|--7------------------------------|

god9
10-22-2006, 11:59 PM
You change keys throughout the whole thing, it goes, D flat, A, D flat, B, D flat, A, E, B

TasianSensation
10-23-2006, 12:03 AM
those are the chords right? i know i'm using Db minor, A minor, Db minor, B major, Db minor, A minor, E major, B major, but does it really change keys throughout?