Black Lace


PDA

View Full Version : Black Lace


doctor_rocker
11-01-2006, 05:39 PM
Hey... this is the intro to a song I wrote called Black Lace. It's acoustic and pretty folky with bit of a blues influence. I'm sorry, but the rhythm is probably off some on the tab, but you can just play it comfortably.



G C G C
|-3-----------------------0---------------------3----------------0-----------------|
|-----3-----3---------1------1--------------3-----3----------1------1--------------|
|---------0---0----------------0--------------------0-----------------0------------|
|-------0-------0---------2------2--------------------0---0------2------2----------|
|-----2-----------2---3------------3-2-0--------2-------2----3------------3-2-0----|
|-3-----------------------------------------3--------------------------------------|

F C G
|-----------------------0---------------------3------------------------------------|
|-------1-----------1------1--------------3-----3----------------------------------|
|----2----2------------------0--------------------0--------------------------------|
|-3---------3---3-------2------2--------------------0---0--------------------------|
|----3--------3-----3------------3-2-0--------2-------2----------------------------|
|-1---------------------------------------3---------------3------------------------|

|-------|---------------------------------------||
|-------|---------------------------------------||
|-----0-|o-----0-2--------0------0-----------0-o||
|-0h2---|o-Oh2--------0h2----0h2---------0h2---o||
|-------|--------------------------3--2--0------||
|-------|---------------------------------------||

dookie_dude_
11-01-2006, 05:44 PM
pretty good

aprescott_27
11-01-2006, 10:18 PM
You might want to put the word Tab someplace in the title next time so it doesn't get closed.

About the song, not really my style, but sounds good anyway. Would help if you could get some rhythm on there, though. I don't quite get the third staff, it doesn't seem to go as well with the other part.