[tab] Weird, Clasically-Influenced Piece [crit for crit]


PDA

View Full Version : [tab] Weird, Clasically-Influenced Piece [crit for crit]


yawn
11-07-2006, 01:37 AM
Played in 4/4, with each bar covering two measures. Play the whole song in triplets.

So it would be:

123 123 123 123 123 123 123 123

for each bar.

e|---------2h3p2-------2h3p2-------------------0-----------------|
B|---3p2h3-------3p2h3-------0-----------2-3-2---3-2-------------|
G|---------------------------------------------------------------|
D|---------------------------------------------------------------|
A|---2-----------0-----------------0-----------------------------|
E|---------------------------3-2-3---3-2-2-----------------------|

e|---------2h3p2-------2h3p2-------------------------------------|
B|---3p2h3-------3p2h3-------0-----------------------------------|
G|---------------------------------------3--0--------------------|
D|---------------------------------------------------------------|
A|---2-----------0-----------------0-----------------------------|
E|---------------------------3-2-3---3-2-2-----------------------|

e|---------0h2h3-------3p2p0-5-----3-----------------------------|
B|---3p2h3-------3p2h3----------5-----2--------------------------|
G|---------------------------------------------------------------|
D|---------------------------------------------------------------|
A|---2-----------2-----------3-----2-----------------------------|
E|---------0-----------0-----------------------------------------|

e|---------0h2h3-8p7p5-3h5p3-7p5p3-3h5p3-2------------------------|
B|---0h2h3----------------------------------2---------------------|
G|----------------------------------------------------------------|
D|---------------------0-----------0-----4------------------------|
A|---2-----------0------------------------------------------------|
E|---------0-----------------0------------------------------------|

e|---------3--------5--------7p5p3-5p3p2-0------------------------|
B|---3p2p0----3p2p0----3p2p0--------------------------------------|
G|----------------------------------------------------------------|
D|----------------------------------------------------------------|
A|---2--------2--------2-----0-----0------------------------------|
E|---------0--------3--------------------2------------------------|

e|---------------------------------5--3--5-3-2-0---0-2-5-2-7------|
B|-------------2-3--2----------2-3---------------3----------------|
G|---------2-4-------------2-4-----------------------------0------|
D|---2-4-5-------------4-5---------------0-----------0------------|
A|---------------0-----------------0-----------0------------------|
E|---0-----------------0------------------------------------------|

e|---5-3-2---2----------------------------------------------------|
B|---------5---5-3------------------------------------------------|
G|----------------------------------------------------------------|
D|---0-----------0------------------------------------------------|
A|---------0------------------------------------------------------|
E|----------------------------------------------------------------|

e|---------2h3p2-------2h3p2-------------------0-----------------|
B|---3p2h3-------3p2h3-------0-----------2-3-2---3-2-------------|
G|---------------------------------------------------------------|
D|---------------------------------------------------------------|
A|---2-----2-----0-----0-----------0-----------------------------|
E|---------------------------3-2-3---3-2-2-----------------------|

e|---------2h3p2-------2h3p2-------------------------------------|
B|---3p2h3-------3p2h3-------0--------------0--------------------|
G|---------------------------------------3-----------------------|
D|---------------------------------------------------------------|
A|---2-----2-----0-----0-----------0-----------------------------|
E|---------------------------3-2-3---3-2-2-----------------------|

e|---------0h2h3-------3p2p0-5-----3-----------------------------|
B|---3p2h3-------3p2h3----------5-----2--------------------------|
G|---------------------------------------------------------------|
D|---------------------------------------------------------------|
A|---2-----------2-----------3-----2-----------------------------|
E|---------0-----------0-----------------------------------------|

e|--------0h2p0-8--7--5--3--2----------------|
B|--0h2h3-------5--4--5--2--2----------------|
G|--------------5--4--5--2--2----------------|
D|-------------------------------------------|
A|--2-----------0-----0-----0----------------|
E|--------0--------0-----0-------------------|

e|---------3--------5--------7p5p3-5p3p2-0------------------------|
B|---3p2p0----3p2p0----3p2p0--------------------------------------|
G|----------------------------------------------------------------|
D|----------------------------------------------------------------|
A|---2--------2--------2-----0-----0------------------------------|
E|---------0--------3--------------------2------------------------|

e|---------------------------------5--3--5-3-2-0---0-2-5-2-7------|
B|-------------2-3--2----------2-3---------------3----------------|
G|---------2-4-------------2-4-----------------------------0------|
D|---2-4-5-------------4-5---------------0-----------0------------|
A|---------------0-----------------0-----------0------------------|
E|---0-----------------0------------------------------------------|

e|---5-3-2---2----------------------------------------------------|
B|---------5---5-3------------------------------------------------|
G|----------------------------------------------------------------|
D|---0-----------0------------------------------------------------|
A|---------0------------------------------------------------------|
E|----------------------------------------------------------------|


Feedback please :)

oddy nocki
11-07-2006, 08:06 AM
Not bad dude.

yawn
01-09-2007, 12:48 AM
Any more comments?

Spark1284
01-26-2007, 02:47 PM
i really like the first two bars. but i think when the low e come in it throws off the vibe. and maybe sumthing besides triplets for a different feel, altho i understand ur tab restrains

yawn
01-26-2007, 05:03 PM
^ Thanks.

hardcoreatheist
01-27-2007, 08:47 AM
Beautiful dude, only bit I didn't like was the 4th to last bar. Those chords just sound a bit shite IMO.

yawn
01-27-2007, 01:56 PM
^ Cool, I wasn't too sure about whether they melodically fit or not.