Does anyone have the tabs to any of their songs plz post here.


PDA

View Full Version : Does anyone have the tabs to any of their songs plz post here.


guitar-lover34
11-11-2006, 04:37 PM
Yes I know how all of you on this thread are very good at creating songs. And if anyone is willing to share the tabs to their songs please give me a link or the name of your band so I can get the tabs if they are already posted on UG plz. If u dont wanna give me your tabs its ok, but I just want a lil sumthing extra to improve my skills. As far as I know I'm not anywhere near where I should be.

ChurchNSkate
11-11-2006, 04:48 PM
This is where you post threads with TABS of your own songs. So this thread is stupid.


As are you.


EDIT: 99% of the songs on this forum are horrible. To say otherwise is sheer ignorance.

guitar-lover34
11-11-2006, 05:13 PM
Hey no flaming I'm just trying to expand my guitar knnowledge, and learn new and different things! So if u dont have anything to post go away!

poopikins
11-12-2006, 04:14 PM
Do you have powertab or guitar pro software? Pretty much everything on this forum is either written on powertab or guitar pro. Powertab is a free download, but you have to buy guitar pro, although it's not a ripoff because guitar pro is better. If you get one of the programs, you'll be able to view the tab on the corresponding files that pretty much everyone on this forum post.

GiantRaven
11-12-2006, 04:18 PM
99% of the songs on this forum are horrible. To say otherwise is sheer ignorance.

:sad:

poopikins
11-13-2006, 06:55 PM
Aren't 99% of all songs horrible (i.e. every rap song ever?)
I'll abmit that at least 75% of my songs suck. But of course that doesn't mean the other 25% aren't worth screwing up for.

yawn
11-13-2006, 07:46 PM
Dude, that's what this whole forum's for.

Anyways, here's me dabbling into the realm of classical:

e|---------2h3p2-------2h3p2-------------------0-----------------|
B|---3p2h3-------3p2h3-------0-----------2-3-2---3-2-------------|
G|---------------------------------------------------------------|
D|---------------------------------------------------------------|
A|---2-----------0-----------------0-----------------------------|
E|---------------------------3-2-3---3-2-2-----------------------|

e|---------2h3p2-------2h3p2-------------------------------------|
B|---3p2h3-------3p2h3-------0-----------------------------------|
G|---------------------------------------3--0--------------------|
D|---------------------------------------------------------------|
A|---2-----------0-----------------0-----------------------------|
E|---------------------------3-2-3---3-2-2-----------------------|

e|---------0h2h3-------3p2p0-5-----3-----------------------------|
B|---3p2h3-------3p2h3----------5-----2--------------------------|
G|---------------------------------------------------------------|
D|---------------------------------------------------------------|
A|---2-----------2-----------3-----2-----------------------------|
E|---------0-----------0-----------------------------------------|

e|---------0h2h3-8p7p5-3h5p3-7p5p3-3h5p3-2------------------------|
B|---0h2h3----------------------------------2---------------------|
G|----------------------------------------------------------------|
D|---------------------0-----------0-----4------------------------|
A|---2-----------0------------------------------------------------|
E|---------0-----------------0------------------------------------|

e|---------3--------5--------7p5p3-5p3p2-0------------------------|
B|---3p2p0----3p2p0----3p2p0--------------------------------------|
G|----------------------------------------------------------------|
D|----------------------------------------------------------------|
A|---2--------2--------2-----0-----0------------------------------|
E|---------0--------3--------------------2------------------------|

e|---------------------------------5--3--5-3-2-0---0-2-5-2-7------|
B|-------------2-3--2----------2-3---------------3----------------|
G|---------2-4-------------2-4-----------------------------0------|
D|---2-4-5-------------4-5---------------0-----------0------------|
A|---------------0-----------------0-----------0------------------|
E|---0-----------------0------------------------------------------|

e|---5-3-2---2----------------------------------------------------|
B|---------5---5-3------------------------------------------------|
G|----------------------------------------------------------------|
D|---0-----------0------------------------------------------------|
A|---------0------------------------------------------------------|
E|----------------------------------------------------------------|

e|---------2h3p2-------2h3p2-------------------0-----------------|
B|---3p2h3-------3p2h3-------0-----------2-3-2---3-2-------------|
G|---------------------------------------------------------------|
D|---------------------------------------------------------------|
A|---2-----2-----0-----0-----------0-----------------------------|
E|---------------------------3-2-3---3-2-2-----------------------|

e|---------2h3p2-------2h3p2-------------------------------------|
B|---3p2h3-------3p2h3-------0--------------0--------------------|
G|---------------------------------------3-----------------------|
D|---------------------------------------------------------------|
A|---2-----2-----0-----0-----------0-----------------------------|
E|---------------------------3-2-3---3-2-2-----------------------|

e|---------0h2h3-------3p2p0-5-----3-----------------------------|
B|---3p2h3-------3p2h3----------5-----2--------------------------|
G|---------------------------------------------------------------|
D|---------------------------------------------------------------|
A|---2-----------2-----------3-----2-----------------------------|
E|---------0-----------0-----------------------------------------|

e|--------0h2p0-8--7--5--3--2----------------|
B|--0h2h3-------5--4--5--2--2----------------|
G|--------------5--4--5--2--2----------------|
D|-------------------------------------------|
A|--2-----------0-----0-----0----------------|
E|--------0--------0-----0-------------------|

e|---------3--------5--------7p5p3-5p3p2-0------------------------|
B|---3p2p0----3p2p0----3p2p0--------------------------------------|
G|----------------------------------------------------------------|
D|----------------------------------------------------------------|
A|---2--------2--------2-----0-----0------------------------------|
E|---------0--------3--------------------2------------------------|

e|---------------------------------5--3--5-3-2-0---0-2-5-2-7------|
B|-------------2-3--2----------2-3---------------3----------------|
G|---------2-4-------------2-4-----------------------------0------|
D|---2-4-5-------------4-5---------------0-----------0------------|
A|---------------0-----------------0-----------0------------------|
E|---0-----------------0------------------------------------------|

e|---5-3-2---2----------------------------------------------------|
B|---------5---5-3------------------------------------------------|
G|----------------------------------------------------------------|
D|---0-----------0------------------------------------------------|
A|---------0------------------------------------------------------|
E|----------------------------------------------------------------|

And here's part of a metal song I wrote a long time ago:

e|------------------------------------------------------------------|
B|------------------------------------------------------------------|
G|---------------6-5---10----11/10---------------6-5---10--8-10/11--|
D|-----------6-8-----8-----6-----------------6-8-----8--------------|
A|-------8-9-----------------------------8-9------------------------|
E|--6-------------------------------4-------------------------------|

e|------------------------------------------------------------|
B|------------------------------------------------------------|
G|---------------6-5-3-6----6/3---------------6-5------5------|
D|-----------6-8----------6---------------6-8-----8-6----6/8--|
A|-------8-9--------------------------8-9---------------------|
E|--2----------------------------1----------------------------|

[chorus coming soon]

e|------------------9-8----13----14p13-----------------9-8----13----13/14--|
B|-------------9-11-----11-----9------------------9-11-----11----11--------|
G|-------10-11------------------------------10-11--------------------------|
D|--8----------------------------------6-----------------------------------|
A|-------------------------------------------------------------------------|
E|-------------------------------------------------------------------------|

e|------------------9-8-6--9----9p6------------------9-8-6-4--8-4/6--|
B|-------------9-11-----------9-----------------9-11-----------------|
G|-------10-11----------------------------10-11----------------------|
D|--4--------------------------------3-------------------------------|
A|-------------------------------------------------------------------|
E|-------------------------------------------------------------------|

e|--1h2p1h2p1h2p1h2/4p2h4p2h4p2h4p2/4h6p4h6p4h6p4h6/9p6h9p6h9p6h9p6--|
B|-------------------------------------------------------------------|
G|-------------------------------------------------------------------|
D|-------------------------------------------------------------------|
A|-------------------------------------------------------------------|
E|-------------------------------------------------------------------|

e|--14p6h9-13p6h9-11p4h7-9p4h6-14p6h9-16p9h13-18p11h14--|
B|------------------------------------------------------|
G|------------------------------------------------------|
D|------repeat each tapping sequence eight times--------|
A|------------------------------------------------------|
E|------------------------------------------------------|

e|--h18p16p14p13-h16p14p13p11-h14p13p11p9-h13p11p9p8-p6~--|
B|--------------------------------------------------------|
G|--------------------------------------------------------|
D|--------------------------------------------------------|
A|--------------------------------------------------------|
E|--------------------------------------------------------|