champion


PDA

View Full Version : champion


bass99
11-18-2006, 02:00 AM
Intro(x5)
G:-------------------------------
D:-------------------------------
A:-------3---1-----------3-------
D:--00-0---0---0-3p0-2-3---------


G:--------------------------------------
D:--------------------------------------
A:--------------------------------------
D:--0-0-00--0-0-000--0-0-00-00-0-0-0-1--

G:--------------------------------
D:--------------------------------
A:--------------------------------
D:--0-0-00--0-0-000--0-0-00-0--1--

(x2)
G:---------------------------
D:---------------------------
A:-----3-4-5-----------------
D:--00-------0--3-4-5b-0-3b--


Verses
(x4)
G:---------------------------
D:---------------------------
A:-----3-4-5-----------------
D:--00-------0--3-4-5b-0-3b--


G:--------------------------------------
D:--------------------------------------
A:--------------------------------------
D:--0-0-00--0-0-000--0-0-00-00-0-0-0-1--


G:--------------------------------|
D:--------------------------------|
A:--------------------------------|
D:--0-0-00--0-0-000--0-0-00-0--1--|


















Bridge
G:-----------------------------------|
D:-----------------------------------|
A:--5-5-5-5-5-5-5-5-5-5-5-5-5-5-5-5--|
D:-----------------------------------|

|--------------------------------------5--|
|------------------5-5-5-5-5-5-5-5-7-7----|
|--8-8-8-8-8-8-8-8------------------------|
|-----------------------------------------|

(play 4 times)
|-------------------------------|
|-------------------------------|
|-------3---1-----------3-------|
|--00-0---0---0-3p0-2-3---------|

|-------------------|
|-------------------|
|-------------------|
|--5--3--2--7--5-3--|


Chorus

(play two times)
|----------------------------------------------------|
|------------------5-5-5-5-3-3-4-5-------------------|
|--5-5-5-5-8-8-8-8-----------------------------------|
|-----------------------------------5--3--2--7--5-3--|
Your world champion now
Champion


Outro

(play 4 times)
|---------------------------|
|---------------------------|
|-------3-555---------------|
|-0-0--------3-3-4-5b-0-3b--|

|---------------------------------|
|---------------------------------|
|---------------------------------|
|--0-0-0-0--0-0-0-0-0--0-0-0-0-0--|

bass99
11-18-2006, 02:05 AM
the tuning is dadg not eadg