Nameless #1 (tab, moderate indie rock)


PDA

View Full Version : Nameless #1 (tab, moderate indie rock)


cloudy_skies
11-24-2006, 12:44 AM
It's a work in progress that needs more work. I'm mostly working on a solo and perhaps a better chord progression.

Standard tuning, no capo

Moderate tempo (about 120 bpm)

4/4 time

Intro (clean electric guitar with jazzy tone)

e||----------------------|----------------------|----------------------|----------------------|
B||------------7---------|------------7---------|------------7---------|-----------7----------|
G||-------0---------0----|-------0---------0----|-------0---------0----|------6---------6-----|
D||----------------------|----------------------|----------------------|--0-------------------|
A||----------------------|----------------------|--7-------------------|----------------------|
E||--7-------------------|--7-------------------|----------------------|----------------------|

After two bars of this, the drums and bass enter.

Verse 1:

|----------------------|----------------------|----------------------|----------------------|
|------------7---------|------------7---------|------------7---------|-----------7----------|
|-------0---------0----|-------0---------0----|-------0---------0----|------6---------6-----|
|----------------------|----------------------|----------------------|--0-------------------|
|----------------------|----------------------|--7-------------------|----------------------|
|--7-------------------|--7-------------------|----------------------|----------------------|

|----------------------|----------------------|----------------------|----------------------|
|------------7---------|------------7---------|------------7---------|-----------7----------|
|-------0---------0----|-------0---------0----|-------0---------0----|------6---------6-----|
|----------------------|----------------------|----------------------|--0-------------------|
|----------------------|----------------------|--7-------------------|----------------------|
|--7-------------------|--7-------------------|----------------------|----------------------|

|------------------------|------------------------|-----------------------|----------------------|
|-------------10---------|-------------10---------|------------10---------|------------10--------|
|--------0----------0----|--------0----------0----|-------0----------0----|-------9---------9----|
|------------------------|------------------------|-----------------------|----------------------|
|------------------------|------------------------|--9--------------------|----------------------|
|--10--------------------|--10--------------------|-----------------------|--9-------------------|

|------------------------|------------------------|-----------------------|----------------------|
|-------------10---------|-------------10---------|------------10---------|------------10--------|
|--------0----------0----|--------0----------0----|-------0----------0----|-------9---------9----|
|------------------------|------------------------|-----------------------|----------------------|
|------------------------|------------------------|--9--------------------|----------------------|
|--10--------------------|--10--------------------|-----------------------|--9-------------------|

Verse 2 (similar to verse 1)

|------------0---------|------------0---------|------------0---------|------------0---------|
|------------7---------|------------7---------|------------7---------|------------7---------|
|-------0---------0----|-------0---------0----|-------0---------0----|-------6---------6----|
|----------------------|----------------------|----------------------|--0-------------------|
|----------------------|----------------------|--7-------------------|----------------------|
|--7-------------------|--7-------------------|----------------------|----------------------|

|------------0---------|------------0---------|------------0---------|------------0---------|
|------------7---------|------------7---------|------------7---------|------------7---------|
|-------0---------0----|-------0---------0----|-------0---------0----|-------6---------6----|
|----------------------|----------------------|----------------------|--0-------------------|
|----------------------|----------------------|--7-------------------|----------------------|
|--7-------------------|--7-------------------|----------------------|----------------------|

|--------------0---------|--------------0---------|-------------0---------|-------------0---------|
|-------------10---------|-------------10---------|------------10---------|------------10---------|
|--------0----------0----|--------0----------0----|-------0----------0----|-------0----------0----|
|------------------------|------------------------|-----------------------|-----------------------|
|------------------------|------------------------|--9--------------------|-----------------------|
|--10--------------------|--10--------------------|-----------------------|--9--------------------|

|--------------0---------|--------------0---------|
|-------------10---------|-------------10---------|
|--------0----------0----|--------0----------0----|
|------------------------|------------------------|
|------------------------|------------------------|
|--10--------------------|--10--------------------|

palm mute this part, it's in 2/4

|--------------|--------------|
|--------------|--------------|
|--------------|--------------|
|--7--7--7--7--|--9--9--9--9--|
|--5--5--5--5--|--7--7--7--7--|
|--------------|--------------|

Chorus: (distorted, and in 4/4)


|--2--------2--------|--2----2--2--2--------|--3--3--3--3--x--x------|-5---------------------|
|--3--------3--------|--3----3--3--3--------|--3--3--3--3--x--x------|-5---2h3/5\3--2--0-----|
|--4--------4--------|--4----4--4--4--------|--4--4--4--4--x--x------|-6---------------------|
|--4--------4--------|--4----4--4--4--------|--5--5--5--5--x--x------|-7---------------------|
|--2--------2--------|--2----2--2--2--------|--5--5--5--5--x--x------|-7---------------------|
|--------------------|----------------------|--3--3--3--3--x--x------|-5---------------------|

|--2--------2--------|--2----2--2--2--------|--3--3--3--3--x--x------|--5--|
|--3--------3--------|--3----3--3--3--------|--3--3--3--3--x--x------|--5--|
|--4--------4--------|--4----4--4--4--------|--4--4--4--4--x--x------|--6--|
|--4--------4--------|--4----4--4--4--------|--5--5--5--5--x--x------|--7--|
|--2--------2--------|--2----2--2--2--------|--5--5--5--5--x--x------|--7--|
|--------------------|----------------------|--3--3--3--3--x--x------|--5--|

Verses 3 and 4 are the same as 1 and 2, just strum the chords instead of arpeggios.

Interlude (also distorted)

|--------------------------|--------------------------|
|--------------------------|--------------------------|
|--4--4--4--4--4--4--4--4--|--4--4--4--4--6--6--6--6--|
|--4--4--4--4--4--4--4--4--|--4--4--4--4--4--4--4--4--|
|--------------------------|--------------------------|
|--------------------------|--------------------------|

|--------------------------|--------------------------|
|--------------------------|--------------------------|
|--4--4--4--4--4--4--4--4--|--4--4--4--4--6--6--6--6--|
|--4--4--4--4--4--4--4--4--|--4--4--4--4--4--4--4--4--|
|--------------------------|--------------------------|
|--------------------------|--------------------------|

|--------------------------|--------------------------|
|--------------------------|--------------------------|
|--7--7--7--7--7--7--7--7--|--7--7--7--7--6--6--6--6--|
|--7--7--7--7--7--7--7--7--|--7--7--7--7--7--7--7--7--|
|--------------------------|--------------------------|
|--------------------------|--------------------------|

|--------------------------|--------------------------|
|--------------------------|--------------------------|
|--7--7--7--7--7--7--7--7--|--7--7--7--7--6--6--6--6--|
|--7--7--7--7--7--7--7--7--|--7--7--7--7--7--7--7--7--|
|--------------------------|--------------------------|
|--------------------------|--------------------------|

Chorus 2 (clean electric, possibly with delay or flange for extra effect)

|----------------------|----------------------|----------------------|----------------------|
|-----------------3----|-----------------3----|----------------------|----------------------|
|------------4---------|------------4---------|-----------------4----|-----------------6----|
|-------4--------------|-------4--------------|------------5---------|------------7---------|
|--2-------------------|--2-------------------|-------5--------------|-------7--------------|
|----------------------|----------------------|--3-------------------|--5-------------------|

Outro (6/4 time)

|--------------------------------|--------------------------------|--------------------------------|
|-----------------3--------------|-----------------3--------------|--------------------------------|
|------------4---------4---------|------------4---------4---------|-----------------4--------------|
|-------4-------------------4----|-------4-------------------4----|------------5---------5---------|
|--2-----------------------------|--2-----------------------------|-------5-------------------5----|
|--------------------------------|--------------------------------|--3-----------------------------|

|--------------------------------|
|--------------------------------|
|-----------------6--------------|
|------------7---------7---------|
|-------7-------------------7----|
|--5-----------------------------|

|--7--|
|--7--|
|--7--|
|--9--|
|-----|
|-----|

Nunwhxre 666
11-24-2006, 01:58 AM
It was ok. Nothing really special. Got a bit repetitive. But, just keep working on it I guess.

If you get a chance, could you crit mine? Links in sig.