Iron man part??


PDA

View Full Version : Iron man part??


hokay
12-02-2006, 12:35 AM
|------------------------------------------
|------------------------------------------ *this is
|------------------------------------------ the rhythm
|----7--7/9-9--12\11-12\11-12\11--7-7/9-9--
|-9--5--5/7-7--10\9--10\9--10\9---5-5/7-7--
|-7----------------------------------------
repeat once

is this the part where u play i am iron man with the guitar that sounds like your saying i am iron man but it doesnt sound like it for me

jamrockradio
12-02-2006, 12:43 AM
no this is not that. this is the classic riff that everyone knows. the riff during "I AM IRON MAN" is just an open E5 chord with the index finger pressuring the string behind the nut.

Mexican Militia
12-02-2006, 12:44 AM
no, the part your thinking about is the very beginning, where you do a full bend on the first fret of low e.


or are you talking about the chorus?

hokay
12-02-2006, 12:51 AM
im talking about how they say i am ironman with the guitar.. i want that

^Slash^
12-02-2006, 12:52 AM
The part where he goes?


IIIIIIIII AAAAAAAMMMMMM IIIIIIIIRRRRROOOOONNNNNNNNN MMMMMAAAAANNN.

Thats the begining. I always thought he used a talk box? I could be wrong.

hokay
12-02-2006, 12:52 AM
no this is not that. this is the classic riff that everyone knows. the riff during "I AM IRON MAN" is just an open E5 chord with the index finger pressuring the string behind the nut.


wait.. so your saying if i time the "I AM IRONMAN" part they play with the guitar right i can say it with the guitar

RandallFlagg
12-02-2006, 12:52 AM
I don't think they say it with a guitar, it's just Ozzy's voice with some effects on it. That or it's Ozzy's voice through Iommi's talkbox.

jamrockradio
12-02-2006, 12:53 AM
no, it's two different things.

hokay
12-02-2006, 12:53 AM
The part where he goes?


IIIIIIIII AAAAAAAMMMMMM IIIIIIIIRRRRROOOOONNNNNNNNN MMMMMAAAAANNN.

Thats the begining. I always thought he used a talk box? I could be wrong.

yeah but after that when he doesnt say anything and plays it with the guitar

christianbassis
12-02-2006, 12:54 AM
I don't think they say it with a guitar, it's just Ozzy's voice with some effects on it. That or it's Ozzy's voice through Iommi's talkbox.


How do you know Tony doesnt use his own talk-box?

hokay
12-02-2006, 12:54 AM
not the e bend behind the nut not the talkbox i am ironman thing but after the e bend behind the nut i want the tab for that

^Slash^
12-02-2006, 12:54 AM
Ya thats teh part. And it sounds super distorted. Talk box no?

hokay
12-02-2006, 01:01 AM
yeah no talk box and after the e bend..
whats that tab????

^Slash^
12-02-2006, 01:02 AM
The main riff you mean?

hokay
12-02-2006, 01:03 AM
ok im new to guitars i just awnt ot play where the guitar "talks" and says i am iron man not the talkbox and after the e bend

hokay
12-02-2006, 01:06 AM
right before when he says has he lost his mind can he see or is he blind? i asked if this was it but u guys said no

|------------------------------------------
|------------------------------------------ *this is
|------------------------------------------ the rhythm
|----7--7/9-9--12\11-12\11-12\11--7-7/9-9--
|-9--5--5/7-7--10\9--10\9--10\9---5-5/7-7--
|-7----------------------------------------
repeat once

RandallFlagg
12-02-2006, 01:09 AM
How do you know Tony doesnt use his own talk-box?
Because you can tell it's Ozzy's voice, how he annunciates words.

hokay
12-02-2006, 01:09 AM
is that it or not?

Spartan 117
12-02-2006, 01:10 AM
the riff behind the nut riff is just the 6th string

hokay
12-02-2006, 01:11 AM
ok well is this the part where they play da da dan nana
|------------------------------------------
|------------------------------------------ *this is
|------------------------------------------ the rhythm
|----7--7/9-9--12\11-12\11-12\11--7-7/9-9--
|-9--5--5/7-7--10\9--10\9--10\9---5-5/7-7--
|-7----------------------------------------
repeat once

^Slash^
12-02-2006, 01:13 AM
Thats the part yes.

hokay
12-02-2006, 01:16 AM
im not playing it right...
|------------------------------------------
|------------------------------------------ *this is
|------------------------------------------ the rhythm
|----7--7/9-9--12\11-12\11-12\11--7-7/9-9--
|-9--5--5/7-7--10\9--10\9--10\9---5-5/7-7--
|-7----------------------------------------
repeat once

do i play 97 first then 75 then 7/9 then 5/7 or 75/97???????

^Slash^
12-02-2006, 01:24 AM
thats how you play it. U just got to get teh rigth timing. Thats the rigth tab. Just listen to the song and you'll get it.


And you play from left to rigtht. So start of with the
-9------------------------7-----------------9-----------------
-7- play it once then 5 twice.. then 7 twice and then play the other part switching from each chord. Gte the timing right a ta da.

hokay
12-02-2006, 01:31 AM
if i play from left to right why are you reading it from right to left

hokay
12-02-2006, 01:43 AM
wow im totally confused