Welcome Home (sanitarium)?


PDA

View Full Version : Welcome Home (sanitarium)?


nickmarshall69
12-05-2006, 08:11 PM
so i was bored this morning and made up this song but it sounds a bit like welcome home (sanitarium) by metallica. just wanna get a second opinion. yes it is in drop B but play it to urself and tell me what u think. (any drop tuning will work really)




C#|-------------------------------------------------
G#|-------------------------------------------------
E |-------------------------------------------------
B |-------0----------0--------0----0--------0----
F# |----4----4----4-----4-------7--------0-----0-
B |-4----------5-----------7----------0-----------

all opinions are greatly appreciated

:cheers:

nickmarshall69
12-05-2006, 08:13 PM
woops my bad

C#|---------------------------------
G#|---------------------------------
E |---------------------------------
B |-----0-------0-----0---0-----0---
F#|---4---4---4---4-----7-----0---0-
B |-4-------5-------7-------0-------

nickmarshall69
12-05-2006, 08:15 PM
ah for christs sake!!!

C#|------------------------------------------------
G#|-------------------------------------------------
E |--------------------------------------------------
B |-------0---------0--------0-----0--------0---
F#|---4----4----4----4--------7--------0-----0-
B |-4----------5----------7-----------0------------

Nunwhxre 666
12-05-2006, 08:17 PM
Try coding it, bro.

Like this
[ code ]
tab here [ / code ]

Just, minus the spaces.

nickmarshall69
12-05-2006, 08:28 PM
C#|------------------------------------------------
G#|-------------------------------------------------
E |--------------------------------------------------
B |-------0---------0--------0-----0--------0---
F#|---4----4----4----4--------7--------0-----0-
B |-4----------5----------7-----------0------------

nickmarshall69
12-05-2006, 08:29 PM
haha thanks