Little thing I made up..


PDA

View Full Version : Little thing I made up..


punk-man12
12-10-2006, 01:34 AM
Okay, so i was messing around a few days ago when I stumbled upon this:

(tuning: C#g#c#f#a#c#)

c#|-----------------------------------------------------------------------------------------------------|
a#|-----------------------------------------------------------------------------------------------------|
f#|---2---------2---------2-------0---------0--------0------0--------0--------0--------------------|
c#|-------4---------4---------4-------4---------4-------4-------2--------2--------2----------------|
g#|-----------------------------------------------------------------------------------------------------|
C#|---0-----0---------0-----------0------0--------0---------0-----0--------0---------0------------|


|-------------------------------------|
|-------------------------------------|
|--0----------0-----------0---------|
|------0-----------0----------0----- |
|--------------------------------------|
|--0------0-----------0-----------0--|



Same Pattern with these chords:

|---------------------------------
|---------------------------------
|--7--------4-----2-----0------
|--5--------0-----4-----0------
|---------------------------------
|---0-------0-----0------0-----



|----------------------------------7------------5----------------------------------------------------|
|------7------------5-------------------------------------7--5-----7-------------5/7--(0)----3~--|
|-----------------------------------------------------------------------------------------------------|
|-----------0------------0-------------0------------0-------------------0----------------------------|
|-----------------------------------------------------------------------------------------------------|
|------0--------0---0--------0---0-------0---0---------0--0------0-------0----0------------0---|


Play around with it, tell me if you like it. Thanks.

aprescott_27
12-10-2006, 11:08 PM
It's an interesting idea, but it's lacking a nice harmony or something that makes it really cool to listen to.

Try using [ code] ... [/code ] tags (without the spaces). Makes your tab look neater. Also, what rhythm do you want? What tempo?