HitchinŽa Ride-Green Day(for guitar with violin intro)


PDA

View Full Version : HitchinŽa Ride-Green Day(for guitar with violin intro)


madeo_182
12-13-2006, 11:31 PM
[FONT=Arial]Chek it!!
By Manuel Madeo
standard tuning
.=palm mute
tr=trill (hammer on and pull off as fast as possible between notes indicated

intro: (violin arranged for guitar)by Manuel Madeo.
e-------------------------------------------------------
b-------------------9-8---------------------------------
g--------8-9--11~~-------9-8~~--------------------------
d—-8-9-------------------------10~~~--------------------
a-------------------------------------------------------
e-------------------------------------------------------

intro: (guitar)
e------------------------------------------------------------------------
b------------------------------------------------------------------------
g------------------------------------------------------------------------
d------------------------------------------------------------------------
a-99-77-66-555/-99-77-66-555/--------------------------------------------
e-77-55-44-333/-77-55-44-333/--------------------------------------------
.. .. .. ... .. .. .. ...

verse 1 and 2:
e--------------------------------------------------------------------------
b--------------------------------------------------------------------------
g--------------------------------------------------------------------------
d--------------------------------------------------------------------------
a-99-77-66-555/--99-77-66-555/-99-77-66-555/-99-77-66-555/-99-77-66-555/---
e-77-55-44-333/--77-55-44-333/-77-55-44-333/-77-55-44-333/-77-55-44-333/---
.. .. .. ... .. .. .. ... .. .. .. ... .. .. .. ... .. .. .. ...

e--------------------------------------------------------
b--------------------------------------------------------
g--------------------------------------------------------
d--------------------------------------------------------
a-99-77-66-555/-99-77-66-555/-99-77----------------------
e-77-55-44-333/-77-55-44-333/-77-55----------------------
.. .. .. ... .. .. .. ... .. ..

pre-verse:
e--------------------------------------------------------------------------
b--------------------------------------------------------------------------
g--------------------------------------------------------------------------
d--------------------------------------------------------------------------
a-666666-777777-99-77-66-555/-99-77-66-555/-99-77-66-555/-99-77-66---------
e-444444-555555-77-55-44-333/-77-55-44-333/-77-55-44-333/-77-55-44---------

verse 2:

pre-chorus:
e------------------------------------------------------------------------------
b------------------------------------------------------------------------------
g------------------------------------------------------------------------------
d------------------------------------------------------------------------------
a-666666-777777-99-77-66-555/-99-77-66-555/-99-77-66-555/-999-7777-6666-5555---
e-444444-555555-77-55-44-333/-77-55-44-333/-77-55-44-333/-777-5555-4444-3333---

chorus:
e------------------------------------------------------------------------------
b------------------------------------------------------------------------------
g------------------------------------------------------------------------------
d------------------------------------------------------------------------------
a-222222-444444-999-777-666-5555-222222-444------------------------------------
e-000000-222222-777-555-444-3333-000000-222------------------------------------

verse 3:
e-------------------------------------------------------------------------
b-------------------------------------------------------------------------
g-------------------------------------------------------------------------
d-------------------------------------------------------------------------
a-99-77-66-555/-99-77-66-555/-99-77-66-555/-99-77-66-555/-99-77-66-555----
e-77-55-44-333/-77-55-44-333/-77-55-44-333/-77-55-44-333/-77-55-44-333----

solo:
e------------------------------------------------------------------------------
b-12-12-12-12-12-12-12-12-12-12-12-12/-15-15-15-15-15-15-15-15-15-15-15-15\----
g-x--x--x--x--x--x--x--x--x--x--x--x----x--x--x--x--x--x--x--x--x--x--x--x-----
d-9--9--9--9--9--9--9--9--9--9--9--9-/-12-12-12-12-12-12-12-12-12-12-12-12\----
a------------------------------------------------------------------------------
e------------------------------------------------------------------------------

e------------------------------------------------------------------------------
b-12-12-12-12-12-12-12-12-12-12-12-12-8-8-8-8-8-8-7-7-7-7-7-7------------------
g-x--x--x--x--x--x--x--x--x--x--x--x--x-x-x-x-x-x-x-x-x-x-x-x------------------
d-9--9--9--9--9--9--9--9--9--9--9--9--5-5-5-5-5-5-4-4-4-4-4-4------------------
a------------------------------------------------------------------------------
e------------------------------------------------------------------------------

e------------------------------------------------------------------------------
b-12-12-12-12-12-12-12-12-12-12-12-12/-15-15-15-15-15-15-15-15-15-15-15-15-----
g-x--x--x--x--x--x--x--x--x--x--x--x----x--x--x--x--x--x--x--x--x--x--x--x-----
d-9--9--9--9--9--9--9--9--9--9--9--9-/-12-12-12-12-12-12-12-12-12-12-12-12-----
a------------------------------------------------------------------------------
e------------------------------------------------------------------------------

~~hold~bend~~~~~~
e------------------------------------------------------------------------------
b-17b-17b-17b-17b-17b-17b-17b-17b-17b-17b-17b-17b-17-17-17-17-17-17------------
g--x---x---x---x---x---x---x---x---x---x---x---x---x--x--x--x--x--x------------
d-14b-14b-14b-14b-14b-14b-14b-14b-14b-14b-14b-14b-14-14-14-14-14-14------------
a------------------------------------------------------------------------------
e------------------------------------------------------------------------------

e------------------------------------------------------------------------------
b-17-15-12-15-17-15-12-15-17-15-12-10-12-15-12-10-12-15-17-15-12-15-17-15------
g--x--x--x--x--x--x--x--x--x--x--x--x--x--x--x--x--x--x--x--x--x--x--x--x------
d-14-12--9-12-14-12--9-12-14-12--9--7--9-12--9--7--9-12-14-12--9-12-14-12------
a------------------------------------------------------------------------------
e------------------------------------------------------------------------------

e------------------------------------------------------------------------------
b-17b-17b-17b-17b-17b-17b-17b-17b-17b-17b-17b-17b------------------------------
g--x---x---x---x---x---x---x---x---x---x---x---x-------------------------------
d-14b-14b-14b-14b-14b-14b-14b-14b-14b-14b-14b-14b------------------------------
a------------------------------------------------------------------------------
e------------------------------------------------------------------------------

~~~~~~~~~~~~~~~hold~bend~~~~~~~~~~~~
e--------------------------------------------------
b--------------------------------------------------
g-17-17-17-17-17-17-17-17-17-17-17-17--------------
d--x--x--x--x--x--x--x--x--x--x--x--x--------------
a-14-14-14-14-14-14-14-14-14-14-14-14--------------
e--------------------------------------------------

chorus

outro: x4 (also played by another guitar during solo)
e------------------------------------------------------------------------
b------------------------------------------------------------------------
g------------------------------------------------------------------------
d-----777----------------------------------------------------------------
a-999-555-555-444--------------------------------------------------------
e-777-----333-222--------------------------------------------------------

on fourth time the other guitar does this ~hold~bend~
e------------------------------------------------------------------------------
b-17b-17b-17b-17b-17b-17b-17b-17b-17b-17b-17b-17b-17-17-17-17------------------
g--x---x---x---x---x---x---x---x---x---x---x---x---x--x--x--x------------------
d-14b-14b-14b-14b-14b-14b-14b-14b-14b-14b-14b-14b-14-14-14-14------------------
a------------------------------------------------------------------------------
e------------------------------------------------------------------------------

end on:
e-4--------
b-4--------
g-4--------
d-4--------
a-2--------
e-2--------

aprescott_27
12-14-2006, 12:01 PM
This forum is for original compositions, not tabs of other artists. Go to the homepage and click "submit your tab" up at the top right. That tab looks pretty good, by the way.

EDIT: Right here:

http://i113.photobucket.com/albums/n234/incubusman27/UGhome.jpg