metal intro and tab


PDA

View Full Version : metal intro and tab


Xplozive
12-16-2006, 02:24 AM
got a metal intro down, lead and rhythm parts. dont worry about the drums thats jsut filler. was gonna upload it but couldnt upload it in rar format :(


Tempo: 130

Lead:

E E E E E E E E E E E E E E E E
D||--10------------------------6--|--5-----5-----5-----3--10--|
A||------11--10--8--10------8-----|-----3-----5-----6---------|
F||---------------------10--------|---------------------------|
C||-------------------------------|---------------------------|
G||-------------------------------|---------------------------|
C||-------------------------------|---------------------------|


W
E E E E E E E E E E E E E E Q
---L----------------------------|----------------------9----|
------10--11-------------10--8--|--10---------------8-------|
--------------12--10--9---------|------9---------9----------|
--------------------------------|---------11--8-------------|
--------------------------------|---------------------------|
--------------------------------|---------------------------|


E E E E E E E E E E E E E E E E
--10------------------------6--|--5-----5-----5-----3--10--|
------11--10--8--10------8-----|-----3-----5-----6---------|
---------------------10--------|---------------------------|
-------------------------------|---------------------------|
-------------------------------|---------------------------|
-------------------------------|---------------------------|


W
E E E E E E E E E E E E E E Q
---L----------------------------|----------------------9----|
------10--11-------------10--8--|--10---------------8-------|
--------------12--10--9---------|------9---------9----------|
--------------------------------|---------11--8-------------|
--------------------------------|---------------------------|
--------------------------------|---------------------------|


E E E E E E E E E E E E E E E E
--10------------------------6--|--5-----5-----5-----3--10--|
------11--10--8--10------8-----|-----3-----5-----6---------|
---------------------10--------|---------------------------|
-------------------------------|---------------------------|
-------------------------------|---------------------------|
-------------------------------|---------------------------|


E E E E E E E E E E E E E E Q
---L----------------------------|----------------------9b----|
------10--11-------------10--8--|--10---------------8--------|
--------------12--10--9---------|------9---------9-----------|
--------------------------------|---------11--8--------------|
--------------------------------|----------------------------|
--------------------------------|----------------------------|


E E E E E E E E E E E E E E E E W
--10--6--------------------|-------------------------12--|---Lb----------------|
---------7--6-----6--7-----|--------------8--10--11------|---------------------|
---------------9--------7--|--------6--7-----------------|---------------------|
---------------------------|--7--5-----------------------|---------------------|
---------------------------|-----------------------------|---------------------|
---------------------------|-----------------------------|---------------------|



Rhythm:

S S Q S S Q E E S S E S S Q S S Q
D||--------------------------|---------------------------|
A||--------------------------|---------------------------|
F||--------------------------|---------------------------|
C||--------------------------|---------------------------|
G||--0-0-0----5-5-5----4--4--|--8-8-8--7-7-7----4-4-4----|
C||--0-0-0----5-5-5----4--4--|--8-8-8--7-7-7----4-4-4----|


S S E S S Q. Q S S E S S Q. Q S S Q S S Q E E
-------------------------|-------------------------|--------------------------|
-------------------------|-------------------------|--------------------------|
-------------------------|-------------------------|--------------------------|
-------------------------|-------------------------|--------------------------|
--0-0-0--0-0-0------0----|--0-0-0--0-0-0------0----|--0-0-0----5-5-5----4--4--|
--0-0-0--0-0-0------0----|--0-0-0--0-0-0------0----|--0-0-0----5-5-5----4--4--|


S S E S S Q S S Q S S E S S Q. Q S S E S S Q. Q
---------------------------|-------------------------|-------------------------|
---------------------------|-------------------------|-------------------------|
---------------------------|-------------------------|-------------------------|
---------------------------|-------------------------|-------------------------|
--8-8-8--7-7-7----4-4-4----|--0-0-0--0-0-0------0----|--0-0-0--0-0-0------0----|
--8-8-8--7-7-7----4-4-4----|--0-0-0--0-0-0------0----|--0-0-0--0-0-0------0----|


S S Q S S Q E E S S E S S Q S S Q
--------------------------|---------------------------|
--------------------------|---------------------------|
--------------------------|---------------------------|
--------------------------|---------------------------|
--0-0-0----5-5-5----4--4--|--8-8-8--7-7-7----4-4-4----|
--0-0-0----5-5-5----4--4--|--8-8-8--7-7-7----4-4-4----|


S S E S S Q. Q S S E S S Q. Q Q Q Q Q
-------------------------|-------------------------|----------------------|
-------------------------|-------------------------|----------------------|
-------------------------|-------------------------|----------------------|
-------------------------|-------------------------|----------------------|
--0-0-0--0-0-0------0----|--0-0-0--0-0-0------0----|--4----8----7----4----|
--0-0-0--0-0-0------0----|--0-0-0--0-0-0------0----|--4----8----7----4----|


Q Q Q Q W W
----------------------|-------------------|-------------------|
----------------------|-------------------|-------------------|
----------------------|-------------------|-------------------|
-----------------0----|--L----------------|--L----------------|
--7----8----4----0----|--L----------------|--L----------------|
--7----8----4----0----|--L----------------|--L----------------|