New riff acous


PDA

View Full Version : New riff acous


jimmmypage#1
12-19-2006, 05:04 AM
i just heard white summer by zep in the background so i thought hey
why not have a go on the ole acoustic so i picked it up and had a little play
around and hes what i got.
i cant be bothered properly figuring out the time sig but its not 4/4
oh wells

freely
|---------------------------------------------------------------------------------------
|--------------------------------------------------------------------------------------
|------------------0h2p0---------------------------------------------4--------------7v
|---------0h2h4------------------2-2-2-2------2----0h2h4--5-------------------
|---------------------------2---3--3-3-3-3---3----3------------------------------
|--------------------------------------------------------------------------------------

|------------------------------------------------------
|-----------------------------------------------------
|------0-----0----------------4v-----7--5h7p5----
|------0h2--0h2-------2s5------------------------7
|------------------------------------------------------
|-------------------------------------------------------


|------------------------------------------------
|------------------------------------------------
|-------0-----0------------2v---4--2h4p2p0
|-------0h4--0h4--2s4----------------------
|----------------------------------------------
|-----------------------------------------------


|------------------------------------------------------------------------
|----------------------------------------------------------------------------
|-------0-----0------------2v---4--2h4p2p0---4--2h4p2p0---------- and THEN
|-------0h4--0h4--2s4------------------------------------------0--2---
|--------------------------------------------------------------------------3
|---------------------------------------------------------------------------

|-------------------------------------------------
|---------------------------------------------------
|--------------------------------------------
|---2p0-2p0-2s4-4---2p0-2p0-2s4-------5----
|---3p0-3p0-3s5-5---3p0-3p0-3s5-------5----
|-------------------------------------------------

WOOO the end tell me what you think

§tratocaster
12-19-2006, 10:17 PM
im not liking these

|------------------------------------------------
|------------------------------------------------
|-------0-----0---------------------------
|-------0h4--0h4------------------------
|----------------------------------------------
|-----------------------------------------------

otherwise its good..as far as i can tell.

if you want you can crit mine (its the orange thing in the bottom of my sig.)