slow intro riff


PDA

View Full Version : slow intro riff


njrocker08
12-27-2006, 02:40 AM
My friend and i were messing around and i came up with this today. By messing around i mean with our guitars... You play the rhythm part pretty slow with a little distortion and on the lead part i played it with a clean sound, not really sure if it sounds good or not so some constructive criticism would be appreciated thanks :D
Rhythm Guitar

e|------------------------------------------------------------
B|------------------------------------------------------------
G|-7-7-7-/11-11-11-11-11--9-9-9-------------------------------
D|-7-7-7-/11-11-11-11-11--9-9-9--7-7-7-7-7------------( X 4 )-
A|-5-5-5-/-9--9--9--9--9--7-7-7--7-7-7-7-7--------------------
E|-------------------------------5-5-5-5-5--------------------

Lead Guitar

e|------------------------------------------------------------
B|---5-7-7/14-12-------------------5-7-7/14-12-17-15-14-12-14-
G|-7-------------14-12-11-7---9--7----------------------------
D|------------------------------------------------------------
A|------------------------------------------------------------
E|------------------------------------------------------------

RPotts
12-27-2006, 02:48 AM
The eighth note in on the lead line, the G, is a minor 2 of the F#5 and would probably sound pretty pooey. Try making the F#5 a F#dim

IAMIDY
12-27-2006, 02:51 AM
It's like, 1:50 AM here, so I can't hook it up to an amp and use dist. and stuff like that, but it sounds good clean.