How good is this sweeping?


PDA

View Full Version : How good is this sweeping?


Lord_Xian
01-01-2007, 11:03 AM
How good is this as a sweeping intro? I mean not speed wise as it could always be faster, but in music technicality/every note being perfect, that shred people seem to desire.

http://www.geocities.com/lord_xian/Sweeping.mid

guitarist41
01-01-2007, 11:10 AM
Hmmm it could work out to be quite cool. but dont have it going on for too long or else it'll get boring.

sweeps can sometimes sound just like some one flapping their tounge about. lol

PooKoo
01-01-2007, 11:37 AM
Make it more legato sounding. And I don't like your tone.

ferretman
01-01-2007, 11:49 AM
Dude, you're not even playing that. Its a midi.

PooKoo
01-01-2007, 11:50 AM
:haha
I think he's talking about his note selection, which is mediocre (no offense, or anything)
and I've got a feeling this should be in the technique thread, but I don't want to report it without reason, so I'll let resi make the call.

Resiliance
01-01-2007, 12:34 PM
Bleh, not really technique related, as it's a midi... I'll let it stay I guess...

Just a pretty standard sweep sequence.

PooKoo
01-01-2007, 12:38 PM
alright, cool. And I agree, nothing really standout about it.

Stratwizard
01-01-2007, 12:51 PM
Yeah, it's cool.

Now record it with a real guitar! :p:

cash49
01-01-2007, 12:59 PM
e||--15----------------15----------------13----------|--------13----------------12----------------12----|
B||-----16----------16----16----------16----15-------|-----15----15----------15----13----------13----13-|
G||--------15----15----------15----15----------14----|--14----------14----14----------12----12----------|
D||-----------17----------------17----------------15-|-----------------15----------------14-------------|
A||--------------------------------------------------|--------------------------------------------------|
E||--------------------------------------------------|--------------------------------------------------|

|-----------------10----------------10----15-------|--15----------------15-18-15-------------17-------|
|-----------13-11----11----------11----11----15----|-----16----------16----------16-------18----18----|
|--12----12-------------12----12----------------15-|--------15----15----------------15-------------19-|
|-----14-------------------12----------------------|-----------17----------------------17-------------|
|--------------------------------------------------|--------------------------------------------------|
|--------------------------------------------------|--------------------------------------------------|

|--------17----------------------------------12----|----------------------------------------||
|-----------18-------------17-------------13----13-|-----11-------10----------6-5---------0-||
|--------------19-------------17-------12----------|--12----12-------10-7---7-----4---------||
|--19-------------19----19-------17-14-------------|-----------12---------7---------6---6---||
|-----20-------------20----------------------------|----------------------------------7-----||
|--------------------------------------------------|----------------------------------------||

Acϵ♠
01-01-2007, 01:53 PM
I think sweeping something that slow would be harder than just alt picking it. How much faster would it be?

flamencogod
01-01-2007, 01:53 PM
omg! you played it so cleanly!

garden of grey
01-01-2007, 02:14 PM
lol @ people not knowing thats a GP or PT file of some sort.

flamencogod
01-01-2007, 02:16 PM
lol @ people not knowing thats a GP or PT file of some sort.
I hope you did notice the sarcasm in my post :peace:

Freepower
01-01-2007, 03:33 PM
It's amazingly clean, but the tone sucks and it's pretty boring. :)

insideac
01-01-2007, 04:14 PM
Make it more legato sounding. And I don't like your tone.


:haha:haha I dunno if you were kidding or not but that was hilarious.

Wexford
01-01-2007, 04:55 PM
I liked the catchy melody. Now just record it with an actual guitar.

Unledded
01-01-2007, 05:42 PM
What are the name of the arpeggios in that sequence?

Lord_Xian
01-01-2007, 05:55 PM
Well it could be faster I suppose, I CAN play it, but only at that speed, it was basically something that emerged from making up some sweep practice. I don't know enough about music to write something I couldnt play.

Lord_Xian
01-01-2007, 05:56 PM
What are the name of the arpeggios in that sequence?

Arpeggios belong in my herb rack, not my guitar rack.

hepzibahbaptist
01-01-2007, 07:02 PM
So I take it you dont have a JEM.

Lord_Xian
01-01-2007, 09:04 PM
Jem?

bucky_2300
01-01-2007, 09:09 PM
^ It's an item you can put on your equipment to enhance its abilities in Diablo II.

ukdudeinuk
01-01-2007, 09:28 PM
^ It's an item you can put on your equipment to enhance its abilities in Diablo II.

ROFL

Godly Moose
01-01-2007, 09:35 PM
^ It's an item you can put on your equipment to enhance its abilities in Diablo II.

Oh wow. That actually made me lol.

Resiliance
01-01-2007, 09:37 PM
It didn't make you "lol", it made you laugh.

ENGLISH, people, ENGLISH!

Bassism
01-01-2007, 10:57 PM
Oh diablo II pwns, if you get say three chipped/flawed gems of the same colour and put them in the horodric cube they become one of the next level. A good way to turn your poor ones into the strongest types. /geek

PooKoo
01-02-2007, 07:45 AM
:haha:haha I dunno if you were kidding or not but that was hilarious.
^_^

Godly Moose
01-02-2007, 08:30 PM
It didn't make you "lol", it made you laugh.

ENGLISH, people, ENGLISH!

Their's nothing wrong with using acronyms in mid sentence. :p: