Classic Rock 'Guess The Tab'!


PDA

View Full Version : Classic Rock 'Guess The Tab'!


Captain Planet
01-05-2007, 07:11 AM
I saw this on the Metal forum and though it would be good to do on the CR forum.

Basically, post the code (with code tags) or a screengrab of a section powertab or GP tab or whatever (MUST be classic rock) and others must guess what song and artist is it. Post at most 2 lines of guitar tab so it's not too easy.

It's better is post a screengrab or a PT or GP tab so others can play it on their guitar to make it easier to get (with the tempo and note durations etc.)

Anyway, I'll start:

I'm not at home so I can't do a PT or GP screengrab, so texzt will have to do:


Standard Tuning

E|----------------|----------------|----------------|----------------|
B|----------------|----------------|----------------|----------1--2--|
G|----------------|----------------|----------------|----------2--3--|
D|--5---55--------|--5---55--------|--5---55--------|--5---555-3--4--|
A|----------------|----------------|----------------|----------------|
E|33-333----------|33-333----------|33-333----------|33-333----------|

E|----------------|----------------|----------------|----------------|----------------||
B|----------------|----------------|----------------|----------------|----------------||
G|----------------|----------------|----------------|----------------|7--6--5---3-----||
D|--5---55--------|--5---55--------|--5---55--------|--5---55------3-|----------3-----||
A|----------------|----------------|----------------|---------3-4-5-5|-5--4--3--1-----||
E|33-333----------|33-333----------|33-333----------|33-333----------|----------------||

shooky
01-05-2007, 07:20 AM
any bob dylan song?

get-born
01-05-2007, 09:43 AM
Led Zeppelin, The Wonton Song

Brandon860
01-05-2007, 07:44 PM
right since no one's going and get-born was right I'll just post one.

--0--------2-------0-------2--------------------- 2-
--3--------2-------0-------2-------2-0-2-0-------2-
--2--------2-------1-------2-------2-2-2-2-------2-
--4--------2-------2-------0-------0-0-0-0-------2-
-------------------2-------0-------2-2-2-2------ 4-
---------------------------2--------------------- 2-

BrainDamage
01-05-2007, 09:16 PM
^^use code ;)

This goes for everone else who posts in this thread as well. USE CODE!!! It's a lot easier to read.

:cool:

Brandon860
01-05-2007, 11:12 PM
Hate to sound like n00b here but I've never had to do it so I dont know how. The answer was Let it Ride by BTO, someone else can go.

psychodelia
01-05-2007, 11:23 PM
Hate to sound like n00b here but I've never had to do it so I dont know how. The answer was Let it Ride by BTO, someone else can go.

Code lesson:

At the beginning of the tab, type

At the end, type

The result:

-2-
-0-

And that's how it works :)

Brandon860
01-05-2007, 11:51 PM
E---------------------------------------------
B---------------------------------------------
G-----2---0--------------------2---0----------
D-0^2---2---2p0------------0^2---2---2p0------
A---------------0------------------------0----
E-----------------3-0----------------------3--

let's try again now :p:

jac_murphy
01-06-2007, 12:01 AM
Eagles - Life In the Fast Lane?

Here's mine:


----------------------------------------------------------
----------------------------------------------------------
-----------------------------------------2----------------
------------2-2---------2-2-----------0h4------2----------
-----4p2p0-------4p2p0--------4p2p0---------0h4-----------
0-0-------4-----------4-------------4------------0--------


Done. It goes on, but that's basically the intro...

-Jacques

Brandon860
01-06-2007, 12:28 AM
Roller- April Wine?

Maet
01-06-2007, 12:58 AM
Rhythm markers and time signatures would be nice too. :)

jac_murphy
01-06-2007, 01:14 AM
^^Right you are.

^Pff. Who needs all that complicated theory shit? TRUE fans can tell what the tab is without it. Plus, you know damn well that that goes far beyond the IQ capacity of your average UG'er. :p:

-Jacques

Brandon860
01-06-2007, 01:46 AM
|-5---------------3-----------------5--------------3----------------10-|
|-----8---6\5---------6---5\3----------8---6\5---------6---5\3-----10--|
|-----------------------------------------------------------------10---|
|----------------------------------------------------------------12----|
|---------------------------------------------------------------12-----|
|--------------------------------------------------------------10------|

phatsack
01-06-2007, 01:53 AM
santana - black magic woman




|-----------------------|-------------------|--------------------|----------------|
|--------------*------|----------------*--|--------------*-----|-------------*--|
:--------------X------|----------------X--|--------------X-----|-------------X--:
:-5---8---10------5-|---8---11--10------|--5---8---10-----8--|---5------------:
|-5---8---10------5-|---8---11--10------|--5---8---10-----8--|---5------------|
|----------------------|----------------------|-----------------------|---3------------|


oops no code

jim morrison714
01-06-2007, 01:54 AM
smoke on the water- deep purple :rolleyes:

phatsack
01-06-2007, 02:01 AM
right, how'd ya guess that?

Brandon860
01-06-2007, 02:02 AM
right, how'd ya guess that?

I hope that's sarcasm :haha

jim morrison714
01-06-2007, 02:06 AM
exactly what i was thinking

Brandon860
01-06-2007, 02:09 AM
are you gonna go jim_morrison714?

phatsack
01-06-2007, 02:09 AM
oh yeah, forgot the emoticon

got any more

paintITblack39
01-06-2007, 11:25 AM
I'll go since this threads dead.
|-----2--2--2---2---|-7----7------9----7-|
|-----3--3--3---3---|-8----8-----10----8-|
|-----2--2--2---2---|-7----7------9----7-|
|-------------------|--------------------|
|-------------------|--------------------|
|-------------------|--------------------|

hendrix4934
01-06-2007, 02:33 PM
Is that bad company-fell like makin love.

Iv heard that riff so many times but cant realy remember

Brandon860
01-06-2007, 02:44 PM
is it part of 2112 by rush? like discovery or something?

BrainDamage
01-06-2007, 07:57 PM
The only thing that it somewhat resembles in my ears is The Song Remains the Same.

2112swartz
01-06-2007, 08:01 PM
ya, thats what it sounds like.

paintITblack39
01-06-2007, 10:06 PM
No all you guesses are wrong.

I should just give it up. Its Herion by Velvet Underground. Its some really small part I picked.

BrainDamage
01-06-2007, 10:39 PM
shotgun next turn!

gimme a minute :p:

EDIT: got one.

---------------------------------|---------------------------------|
-13--------------12--------------|-12--10--8---7-------------------|
-14--------------12--------------|-12--11--9---7-------------------|
---------------------------------|---------------------------------|
---------------------------------|---------------------------------|
---------------------------------|---------------------------------|


one of my favorite songs by this band.

Captain Planet
01-08-2007, 06:13 AM
thanks for taking part guys I though someone might say "It's been done before n00b!" and close the thread. Please keep them coming! I'm not at home so it's harder for me to guess them because I can't play them on guitar.

treefiddey
01-08-2007, 09:04 AM
No all you guesses are wrong.

I should just give it up. Its Herion by Velvet Underground. Its some really small part I picked.

yeah I was gonna say that but it is a really small part
I diddnt think that you would put that

get-born
01-08-2007, 05:30 PM
I don't know BD's, but it dosen't look like anyone else does so...

-----------------------------------------
-----------------------------------------
-----------------------------------------
---------5----3-------5---3------------
-3-4-5----5------------------5----3---
------------------------------------------

-----------------------------5/-
--------------3-----------------
-4p2p0--2-----4p2p0-------
---------------------------------
---------------------------------
---------------------------------

HINT:

Think Gibson ES-175

BrainDamage
01-08-2007, 05:31 PM
^^Siberian Khatru. Doesn't seem exactly right, but that's the song you were aiming for.

Mine still stands from before :)

get-born
01-09-2007, 07:38 AM
I messed up the tab a bit. Its right, I just got the lines mixed up, spacing wise, a bit.

ledhed68
01-09-2007, 08:08 AM
shotgun next turn!

gimme a minute :p:

EDIT: got one.

---------------------------------|---------------------------------|
-13--------------12--------------|-12--10--8---7-------------------|
-14--------------12--------------|-12--11--9---7-------------------|
---------------------------------|---------------------------------|
---------------------------------|---------------------------------|
---------------------------------|---------------------------------|


one of my favorite songs by this band.

This is probably wrong, but is it Breathe by Pink Floyd?

tristan123/
01-09-2007, 12:57 PM
I got one:
e--------------------7>8-7-11<7-8-11-12>14-11-12-14>15-12-14-15<14-12----14<11
B------7^--7-10^------------------------------------------------------------------------15--------
G-8-9----9-----------------------------------------------
D-------------------------------------------------------------
A--------------------------------------------------------------------------
E-------------------------------------------------------------------------

e-12>14<12---12-
B--------------15----15^~

(>,< = hammer/pull off, ^= bend)

psychodelia
01-09-2007, 01:02 PM
e--------------------7>8-7-11<7-8-11-12>14-11-12-14>15-12-14-15<14-12----14<11
B------7^--7-10^------------------------------------------------------------------------15
G-8-9----9-----------------------------------------------
D-------------------------------------------------------------
A--------------------------------------------------------------------------
E-------------------------------------------------------------------------

e-12>14<12---12-
B--------------15----15^~

(>,< = hammer/pull off, ^= bend)


Code! Gahh. And GnR isn't classic rock :)

BrainDamage
01-09-2007, 06:08 PM
This is probably wrong, but is it Breathe by Pink Floyd? nope. If Heartbreaker comes into this thread he'll be able to get it :p:

Lessthanbass22
01-09-2007, 06:51 PM
shotgun next turn!

gimme a minute :p:

EDIT: got one.

---------------------------------|---------------------------------|
-13--------------12--------------|-12--10--8---7-------------------|
-14--------------12--------------|-12--11--9---7-------------------|
---------------------------------|---------------------------------|
---------------------------------|---------------------------------|
---------------------------------|---------------------------------|


one of my favorite songs by this band.

Dazed and Confused?

BrainDamage
01-09-2007, 06:54 PM
^^nope :D

EDIT: Hint time...

one of the members of the band who plays this song played in another band with Eric Clapton.

ledhed68
01-11-2007, 08:12 AM
^^nope :D

EDIT: Hint time...

one of the members of the band who plays this song played in another band with Eric Clapton.

Is it something by the Graham Bond Organisation?

treefiddey
01-11-2007, 09:21 AM
^^nope :D

EDIT: Hint time...

one of the members of the band who plays this song played in another band with Eric Clapton.

Happenings Ten Years Time Ago - The Yardbirds?

anything by the Beatles?

BrainDamage
01-11-2007, 05:39 PM
wrong and wrong.

FINE I'll give you the answer.

Traffic- Medicated Goo.

and the connection is:
Traffic-->Steve Winwood-->Blind Faith-->Eric Clapton

psychodelia
01-11-2007, 05:59 PM
:eek: *kicks self*

get-born
01-11-2007, 06:18 PM
OK, There is no way I would have got that.

BrainDamage
01-11-2007, 06:24 PM
^^Cause you're a loser who doesn't listen to Traffic.

Everyone go out and listen to Traffic. Now.

Then come back and post a tab, so this game can continue.

:)

psychodelia
01-11-2007, 06:35 PM
I was thinking of a harder one, but I'll save it til later. Easy one for now:

e|------------------------------------------|------------------|
B|------------------------------------------|------5-4---------|
G|---------------------2--------2-s4--------|------5-4---------|
D|---------------0-2-3--------3---s5----5---|7-7-7-7-7-7-------|
A|---------0-2-3----------------------------|0-----0-0---8-0-7-|
E|------------------------------------------|------------------|

Maet
01-11-2007, 11:59 PM
Am and a little whole tone slide. I'm inclined to think Hendrix, but something tells me otherwise. Hint?

And just for the hell of it....


5/4 6/4
|---------0-----------|---------4---------------|
|-------13----13------|-------------4-----------|
|5-----0-----------0--|-------5---------5-------|
|---14----------------|-----6---------------6---|
|-15------------------|---6---------------------|
|---------------------|-4-----------------------|

**First four notes of each measure are eights while the remainders are quarters.

psychodelia
01-12-2007, 02:13 AM
Not Hendrix.

Hmm, hint.... "Prog woodwind frontman" might be giving away too much, but oh well.

TonyRandall
01-12-2007, 02:29 AM
jethro tulllllllllllllll^?

aqualung.?

psychodelia
01-12-2007, 02:27 PM
So close. But not quite.

jim morrison714
01-12-2007, 06:02 PM
my god- jethro tull

psychodelia
01-12-2007, 08:14 PM
my god- jethro tull

Winner!

Teh_Guitarer
01-12-2007, 10:53 PM
5/4 6/4
|---------0-----------|---------4---------------|
|-------13----13------|-------------4-----------|
|5-----0-----------0--|-------5---------5-------|
|---14----------------|-----6---------------6---|
|-15------------------|---6---------------------|
|---------------------|-4-----------------------|

**First four notes of each measure are eights while the remainders are quarters.


omg i want to say something by rush... temples of syrinx or whatever its called?

edit: nevermind i do believe im wrong but it is similar to the very end part

Maet
01-12-2007, 11:38 PM
Short answer, no.

ledhed68
01-13-2007, 12:40 PM
Am and a little whole tone slide. I'm inclined to think Hendrix, but something tells me otherwise. Hint?

And just for the hell of it....


5/4 6/4
|---------0-----------|---------4---------------|
|-------13----13------|-------------4-----------|
|5-----0-----------0--|-------5---------5-------|
|---14----------------|-----6---------------6---|
|-15------------------|---6---------------------|
|---------------------|-4-----------------------|

**First four notes of each measure are eights while the remainders are quarters.


the first measure doesnt work, if the rhythm you described is true, then there is an extra beat in the measure

Derigiberble
01-13-2007, 12:42 PM
the first measure doesnt work, if the rhythm you described is true, then there is an extra beat in the measure

That's because it's in 5/4 ;).

psychodelia
01-13-2007, 01:04 PM
That's because it's in 5/4 ;).

There are 8 notes in the measure. If the first 4 are 8ths, and the last 4 are quarters, that's 6 beats.

Derigiberble
01-13-2007, 01:13 PM
There are 8 notes in the measure. If the first 4 are 8ths, and the last 4 are quarters, that's 6 beats.

Oh yeah, so they're both in 6/4. I never looked hard enough before, I just presumed he hadn't seen that bit.

Maet
01-13-2007, 01:27 PM
Actually, it's my fault. The first note that you see (the C) isn't even a note. It's part of the 5/4 time signature that was in the tab (It was in the measure divider instead of above it, hence the 5 and no 4 when I successfully erased the 4, and clumsily forgot the 5.:) )

I'll redo it...


5/4 6/4
|---------0-----------|---------4---------------|
|-------13----13------|-------------4-----------|
|------0-----------0--|-------5---------5-------|
|---14----------------|-----6---------------6---|
|-15------------------|---6---------------------|
|---------------------|-4-----------------------|
1 & 2 & 3 4 5 | 1 & 2 & 3 4 5 6
e e e e q q q | e e e e q q q q

e = eight note
q = quarter note


There we go. Counters and note indications. Hopefully there's no more problems.

The Ted
01-13-2007, 03:32 PM
Is the winner going to do a tab?

ECwomantoneman
01-14-2007, 03:44 PM
|--------------------------------------------------------------------------------------------------0--|
|--------------------------------------------------------------------------------------------------x--|
|------------12~---------------12~-------------------------12~--------------12~--------------------x--|
|---12h14-------------12h14----------------------12h14-----------12h14-----------------------------x--|
|-----------------------------------------12h14-------------------------------------------------------|
|-----------------------------------------------------------------------------------------3b4---------|

Page&HammettFan
01-16-2007, 11:02 PM
I don't think anyones gonna guess it. Wanna give it, I'f guess part of a Sabbath song. Which has that 12h14 12 riff in it. The last song on their self-titled debut, whcih escapes me right now.

ECwomantoneman
01-20-2007, 09:40 AM
I don't think anyones gonna guess it. Wanna give it, I'f guess part of a Sabbath song. Which has that 12h14 12 riff in it. The last song on their self-titled debut, whcih escapes me right now.

Sorry, good shot but wrong.

Clue:

A Creamy Spoonful...........Live

Come on, that's practically telling you!!!!!!!!!!!!

P.S.

You give a really wicked vibrato for that "G" note on the third string.

TheHeartbreaker
01-20-2007, 09:42 AM
Cream - Spoonful (Live)

I haven't even looked at the tab, I just read your post. :)

ECwomantoneman
01-20-2007, 09:46 AM
Cream - Spoonful (Live)

I haven't even looked at the tab, I just read your post. :)

Aye, very good, you should try it out.

Curiously, UG posted my I'm So Glad Intro, which I'm 50 - 50 sure is wrong (and is actually closer to the Skip James original than the Cream one), whereas they didn't accept the aforementioned Live Spoonful, which I'm 100% about.

ledhed68
01-20-2007, 11:16 AM
did anyone end up getting Maet's tab right?

Maet
01-20-2007, 01:11 PM
Nope. It's still in the air.

Page&HammettFan
01-20-2007, 01:55 PM
Well I haven't delved into a whole lotta Cream yet, so I wasn't gonna guess that song :p:

ledhed68
01-21-2007, 06:33 PM
for Maet's tab, can you give us a hint?

Maet
01-21-2007, 11:38 PM
It's Rush, and it's from what some might consider an "epic" song.

The Ted
01-21-2007, 11:39 PM
2112?

Maet
01-22-2007, 05:15 PM
Nope.

Derigiberble
01-22-2007, 05:17 PM
Jacob's Ladder

Maet
01-22-2007, 06:01 PM
Touché.

Derigiberble
01-22-2007, 06:07 PM
Getting this makes you cool

!--------------!--------------------!--------------------!---------------!
!--------------!--------------------!--------------------!---------------!
!--------------!-5------------------!--------------------!-7-------------!
!------5-7p5---!----7---7---5-7p5---!-5--7---7---5-7p5---!-7--5b6--5-----!
!------------7-!------------------7-!------------------7-!------------7--!
!--------------!--------------------!--------------------!---------------!

!---------------!--------------------!--------------------!-------------!
!---------------!--------------------!--------------------!-----7-------!
!---------------!-5------------------!-5------------------!-5---7---5---!
!-5~~---5-7p5---!----7---7---5-7p5---!----7---7---5-7p5---!-----------7-!
!-------------7-!------------------7-!------------------7-!-------------!
!---------------!--------------------!--------------------!-------------!

!-------------!
!-------------!
!-------------!
!-------------!
!-7-----------!

Page&HammettFan
01-22-2007, 10:43 PM
I don't think I've ever heard that... Would you mind giving the BPM? You can't do much with that. I can't atleast.

Teh_Guitarer
01-23-2007, 03:04 AM
rudolph the red nosed reindeer

Derigiberble
01-23-2007, 05:27 AM
Ok here's a slighty different version done with timings added in.


S S S S E E E S S S S E E E S S S S
e|--------------------|-------------------------|-------------------------|
B|--------------------|--5----------------------|--5----------------------|
G|-----------5--------|--5b------------5--------|--5b------------5--------|
D|-----------5-7p-5---|------7----7----5-7p-5---|------7----7----5-7p-5---|
A|------------------7-|-----------------------7-|-----------------------7-|
E|--------------------|-------------------------|-------------------------|


E S E S E E. S S S S E E E S S S S
----------------------|-----------------------|-------------------------|
----------------------|-----------------------|--5----------------------|
--7--x-5-------5---7b-|--------------5pbr-----|--5b------------5--------|
--7--x-5----7---------|-------------------7-5-|------7----7----5-7p-5---|
----------x-----------|-----------------------|-----------------------7-|
----------------------|-----------------------|-------------------------|


E E E S S S S E S E E E. S
-------------------------|---------------------|---------------|
--5----------------------|---------------------|---------------|
--5b------------5--------|--7--x-5-------------|---------------|
------7----7----5-7p-5---|--7--x-5----7--5---7-|---------------|
-----------------------7-|-------------------7-|---------------|
-------------------------|---------------------|---------------|

BPM I have down here is 147.

Page&HammettFan
01-23-2007, 04:14 PM
Thanks. I'll see if I know that one later on.

Derigiberble
01-29-2007, 12:01 PM
Anyone know it?

ledhed68
01-29-2007, 05:58 PM
Whats the time signature?

MTVget0FFtheAIR
01-29-2007, 06:28 PM
no clue...hint would be nice

Maet
01-29-2007, 07:25 PM
5/8 for the second and third measures, 6/8 for the fourth, I don't know, 5/8 for two more measures, 11/16 for the second last?

Proggy I assume.

Derigiberble
01-30-2007, 07:29 AM
4/4

It's a blues rock piece.

hendrix4934
02-18-2007, 02:19 PM
Steppin out-Cream

Derigiberble
02-18-2007, 03:00 PM
Nope, but along the right lines with the blues rock theme.

Brandon860
02-18-2007, 05:06 PM
...Passage to Bangkok by Rush?

Derigiberble
02-19-2007, 12:24 PM
Nope

kaotik420
03-03-2007, 04:53 PM
S S S S E E E S S S S E E E S S S S
e|--------------------|-------------------------|-------------------------|
B|--------------------|--5----------------------|--5----------------------|
G|-----------5--------|--5b------------5--------|--5b------------5--------|
D|-----------5-7p-5---|------7----7----5-7p-5---|------7----7----5-7p-5---|
A|------------------7-|-----------------------7-|-----------------------7-|
E|--------------------|-------------------------|-------------------------|


E S E S E E. S S S S E E E S S S S
----------------------|-----------------------|-------------------------|
----------------------|-----------------------|--5----------------------|
--7--x-5-------5---7b-|--------------5pbr-----|--5b------------5--------|
--7--x-5----7---------|-------------------7-5-|------7----7----5-7p-5---|
----------x-----------|-----------------------|-----------------------7-|
----------------------|-----------------------|-------------------------|


E E E S S S S E S E E E. S
-------------------------|---------------------|---------------|
--5----------------------|---------------------|---------------|
--5b------------5--------|--7--x-5-------------|---------------|
------7----7----5-7p-5---|--7--x-5----7--5---7-|---------------|
-----------------------7-|-------------------7-|---------------|
-------------------------|---------------------|---------------|

i dunno.. was thinking skynyrd's poison whiskey.. but it seems a tab for it doesn't exist online, so i doubt that's it.

*I just realized how old this is.. sorry for bumping it. looks like the game's kinda dead.

Brandon860
03-06-2007, 07:32 PM
Derigiberble, I think we need another hint man, your's has been up for like a month :)

Derigiberble
03-07-2007, 06:30 AM
OK it's an old Albert King song but this particular version by a certain talented Irish blues rock guitarist.

ledhed68
03-07-2007, 07:30 AM
OK it's an old Albert King song but this particular version by a certain talented Irish blues rock guitarist.

so it's something by Rory Gallager

BrainDamage
03-07-2007, 03:12 PM
Laundromat.

Derigiberble
03-09-2007, 12:48 PM
Laundromat.

You wikipediaing motherfuck.

BrainDamage
03-09-2007, 06:23 PM
^^I had to look up to see if it was an Albert King song, but after you said it was Rory...

ledhed68
03-09-2007, 11:29 PM
So BrainDamage, you have the next tab.

BrainDamage
03-10-2007, 03:49 PM
right. I'll go look now.

EDIT: eaaaasy

Gtr I
a Q Q E E E E +E Q. +Q. E
|---------------------3-|-(3)--------------|
|-3h5----5---5p3--5-----|-----3----(3)-----|
|-----------------------|------------------|
|-----------------------|------------------|
|-----------------------|------------------|
|-----------------------|------------------|
|
| Gtr II
| a Q Q E E E a E E Q. +Q. E
|-----------------------|------------------|
|-----------------------|------------------|
|-4s6----6---6p4--6-6s7-|-----4----(4)-----|
|-5s7----7---7p5--7-7s9-|-----5----(5)-----|
|-----------------------|------------------|
|-----------------------|------------------|

a Q Q E E E E +Q E S S E S S +S S E
|-2h3----3---3s2---5-|-(5)--------0--------------|
|----------------3---|--------0h2-----3-(3)---2--|
|--------------------|--------------4-------2----|
|--------------------|---------------------------|
|--------------------|---------------------------|
|--------------------|---------------------------|
|
| Q Q E E E E +Q. S S E S S +S S E
|--------------------|---------------------------|
|------------------5-|-(5)--------2--------------|
|---7----7---7s6-4-6-|-(6)----0h2-----4-(4)---2--|
|-7s9----9---9s7-5---|------------5-4-4-(4)-2-2--|
|--------------------|--------5h7---5-------4----|
|--------------------|---------------------------|

ledhed68
03-10-2007, 04:42 PM
right. I'll go look now.

EDIT: eaaaasy

Gtr I
a Q Q E E E E +E Q. +Q. E
|---------------------3-|-(3)--------------|
|-3h5----5---5p3--5-----|-----3----(3)-----|
|-----------------------|------------------|
|-----------------------|------------------|
|-----------------------|------------------|
|-----------------------|------------------|
|
| Gtr II
| a Q Q E E E a E E Q. +Q. E
|-----------------------|------------------|
|-----------------------|------------------|
|-4s6----6---6p4--6-6s7-|-----4----(4)-----|
|-5s7----7---7p5--7-7s9-|-----5----(5)-----|
|-----------------------|------------------|
|-----------------------|------------------|

a Q Q E E E E +Q E S S E S S +S S E
|-2h3----3---3s2---5-|-(5)--------0--------------|
|----------------3---|--------0h2-----3-(3)---2--|
|--------------------|--------------4-------2----|
|--------------------|---------------------------|
|--------------------|---------------------------|
|--------------------|---------------------------|
|
| Q Q E E E E +Q. S S E S S +S S E
|--------------------|---------------------------|
|------------------5-|-(5)--------2--------------|
|---7----7---7s6-4-6-|-(6)----0h2-----4-(4)---2--|
|-7s9----9---9s7-5---|------------5-4-4-(4)-2-2--|
|--------------------|--------5h7---5-------4----|
|--------------------|---------------------------|

Let It Rain-Eric Clapton

BrainDamage
03-10-2007, 04:56 PM
Told you it was easy :p:

Your go, ledhed.

ledhed68
03-11-2007, 02:02 PM
|------7---5------------------7---5---|
|-5--8---8---8-5---------5--8---8---8-|
|----------------7p5------------------|
|--------------------7----------------|
|-------------------------------------|
|-------------------------------------|

|------7---5------------------7---5---|
|-5--8---8---8-5---------5--8---8---8-|
|----------------7p5------------------|
|--------------------7----------------|
|-------------------------------------|
|-------------------------------------|


|-------10----8----------------------10-----8---|
|-8--11----11---11-8----8-11---8--11----11----8-|
|--------------------10-------------------------|
|-----------------------------------------------|
|-----------------------------------------------|
|-----------------------------------------------|


|------7---5------------------7---5---|
|-5--8---8---8-5---------5--8---8---8-|
|----------------7p5------------------|
|--------------------7----------------|
|-------------------------------------|
|-------------------------------------|

e|------------------------------------------------------------------------|
B|--4/5---4/5---7p5--4/5--4/5---------------------------------------------|
G|--4/5---4/5---7p5--4/5--4/5--4/5----------------------------------------|
D|-----------------------------4/5----------------------------------------|
A|------------------------------------------------------------------------|
E|------------------------------------------------------------------------|

e|------------------------------------------------------------------------|
B|--4/5---4/5---7p5--4/5--4/5---------------------------------------------|
G|--4/5---4/5---7p5--4/5--4/5--4/5----------------------------------------|
D|-----------------------------4/5----------------------------------------|
A|------------------------------------------------------------------------|
E|------------------------------------------------------------------------|

e|--5-----------------------------------------------------------------------|
B|----8--5------------------8/----------------------------------------------|
G|---------7-5--------------7/----------------------------------------------|
D|-------------5-7----------6/----------------------------------------------|
A|--------------------------7/----------------------------------------------|
E|--------------------------------------------------------------------------|