My solo denied


PDA

View Full Version : My solo denied


c0ld_3mphasis05
01-20-2007, 02:14 PM
So I spent some time and acctaully figured out the solo to iron man and made a correct easy to read and comprehend tab, and it was denied. well... here it is....

Its not going to work right on here, copy it into notepad or word and use corrier new as font

Black Sabbath - Iron Man solo


Notation:

h = hammer on
p = pull off
s = slide
~ = hold note for a second or so
* = IMPORTANT when this is above a note it means the LAST note
is still fretted and ringing out when you strike this note
b = bend
br= bend and release
v = vibrato


|-------------------------------------------------------------
|-------------------------------------------------------------
|-------------------------------------9-----------9-9---------
|--------------------------9-9-9h11----11-11p9--------11p9----
|-----7-7h9-9p7---7-9-9s11--------------------11-----------11-
|-7h9-----------9---------------------------------------------


|---------------9---------------------------------------------
|-------------s9*-12-12p9-------------------------------------
|-------------------------11-11-9-9~---------------N-O-T------
|-9h11-11~~--------------------------11-9-9h11-------A--------
|-------------------------------------------------R-E-S-T-----
|-------------------------------------------------------------


(Keep 9 on G and B fretted)
|-----------------------------------------------9--(11)br-----
|-----9--12-12p9----9---12p9----9---12p9----9-------12br------
|-9h11*---------11p9*-------11p9*-------11p9*-----------------
|-------------------------------------------------------------
|-------------------------------------------------------------
|-------------------------------------------------------------



vibrate the 14 side to side
|-9---------12br13--12br13----12b13-12p9----------------9-9-------
|--12-9-9--------------------------------12--14-12-14v-----12p9---
|---------------------------------------------------------------11
|-----------------------------------------------------------------
|-----------------------------------------------------------------
|-----------------------------------------------------------------


|--------------------------------------------------------------
|-9-12-12p9----------------------------------------------------
|-----------11---11p9-----9-9----------------9-9------------9--
|--------------------11-------11p9----9h11-------11p9---9h11--9
|---------------------------------11-----------------11--------
|--------------------------------------------------------------

|--------------------------
|--------------------------
|-------------------------- x reapeat a bunch of times
|-9h11------9h11------9h11-
|--------------------------
|--------------------------

kirbyrocknroll
01-20-2007, 02:27 PM
1) Wrong forum
2) There are probably other accurate tabs for Iron Man.

c0ld_3mphasis05
01-20-2007, 02:37 PM
Not the solos.. and where do you think it should be? its a contribution.

kirbyrocknroll
01-20-2007, 02:59 PM
Not the solos.. and where do you think it should be? its a contribution.
If you go to Site Feedback, you will find a few threads similar to this, and you will probably get the same answers. Maybe the solos are in the tabs for the whole song too?

Anyway, if I'm wrong, try PMing someone of importance. Dyuha maybe, but I never got a PM back from him lol.

DFH/CFH
01-20-2007, 04:52 PM
repeat a bunch of times...uh not too descriptive buddy

The Casualty
01-20-2007, 05:09 PM
How many versions of Iron Man on here? Too much.

c0ld_3mphasis05
01-20-2007, 07:29 PM
There are no good solos on there. This is a good tab, it deserves to be up, some of those other iron mans need to be cleaned out, I dont know why they were accepted

Kid_Thorazine
01-21-2007, 01:14 AM
yeah this one actually does seem a lot more accurate than most of the other ones ive looked at on here, they need to get somebody to work on TAB QC.

c0ld_3mphasis05
02-03-2007, 02:58 PM
So how do I get it up on UG where it should be

I was here
02-10-2007, 12:13 AM
they don't really like solos or intros on UG today

gallagher2006
02-10-2007, 09:10 AM
e-----------------------------------------------------------|
b-----------------------------------------------------------|
g---------------------------------------------9--(9)--------|
d----------------------------------9--9--9h11-----11--11p9--|
a-------7--7h9--9p7-----7--9--9/11--------------------------|
e--7-h9--------------9--------------------------------------|

e----------------------------------------9---------------------|
b-----------------------------------9------12p9----9-----------|
g-----9--9-------------------x--11--11b---------11-9-9--9b(10)-|
d----------11p9----9h11--11------------------------------------|
a-11------------11---------------------------------------------|
e--------------------------------------------------------------|

e-------------------------9--------------------------------------|
b----------------------9----12p9-------9-12p9------9--12-12b(14)-|
g--------------9--11b--9---------11p9---------11p9-------12b(13)-|
d-11--9--9h11----------------------------------------------------|
a----------------------------------------------------------------|
e----------------------------------------------------------------|

e-9-----------12b(13)-12b14r12-12b13r12-9h12p9----9---------|
b---12--9--9-----------------------------------12---12-12b--|
g-----------------------------------------------------------|
d-----------------------------------------------------------|
a-----------------------------------------------------------|
e-----------------------------------------------------------|

e-----9---------------------------------------------------|
b-12b---12p9------9--12p9---------------------------------|
g------------11b--9--------11--11p9-----9--9--------------|
d------------------------------------11------11p9----9h11-|
a-------------------------------------------------11------|
e---------------------------------------------------------|

e------------------------------------------------------------|
b----------------------0-------------------------------------|
g-9--9--------------9----------------------------------------|
d------11p9----9h11-------9h11--9h11--9h11--9h11--9h11--9h11-|
a-----------11-----------------------------------------------|
e------------------------------------------------------------|

e--------------------------------------------------------------------|
b--------------------------------------------------------------------|
g--------------------------------------------------------------------|
d-9h11--9h11--9h11--9h11--9h11--9h11---11--9-------------------------|
a---------------------------------------------11-10--9--7------------|
e----------------------------------------------------------7--7h9--9-|

Solo 2 :
full
e--------^---------|
b-------^--^-------|
g------1/2---^-----|
d--2--^-------2^---| REPEAT
a----^-------------|
e--0^---------0----|
*
bend down behind nut (Where you tune your strings)

e-----------------------------------------------------------------------|
b-----------------------------------------------------------------------|
go---------------------------------------------------------------------o|
do------------------------------------------------4--5--4---5--4h5p4---o|
a--7__p5--7vvvvvv---5h7p5vvvvvv---7__p5--7vvvvvv---------------------5--|
e-----------------------------------------------------------------------|

e-------------------------------------------------------------|
b-------------------------------------------------------------|
g---------------------7-----7--9--9b(12)---9b(12)---9b(12)r9--|
d--------5------7//9-----9------------------------------------|
a--5/7-------7------------------------------------------------|
e-------------------------------------------------------------|

e--------------------------------10--10h12--12b--12b--12br12p10-12p10-|
b--------------------8----10//12--------------------------------------|
g--7-----7--h9vvvvv-----9---------------------------------------------|
d-----9---------------------------------------------------------------|
a---------------------------------------------------------------------|
e---------------------------------------------------------------------|

e-10-------------------------------------------------------|
b----12--12\\10--8//10--8----------------------------------|
g--------------------------9--7----------------------------|
d---------------------------------9\7--5--7p5----5h7-------|
a---------------------------------------------7------5h7---|
e----------------------------------------------------------|

e------------------------------------------------------------|
b------------------------------------------------------------|
g--------------7-----7--9--9b(12)---9b(12)---9b(12)---9b(12)-|
d--5--7--7//9-----9------------------------------------------|
a------------------------------------------------------------|
e------------------------------------------------------------|

e-----------------------------------------------------------|
b-----------------------------------------------------------|
g--7h9p7----7-----------------------------------------------|
d--------9-----9\7--5--7---5--7--7b(8)--7b(8)--7b(8)r--5----|
a---------------------------------------------------------7-|
e-----------------------------------------------------------|

e-----------------------------------------------------------------------|
b-----------------------------------------------------------------------|
go---------------------------------------------------------------------o|
do------------------------------------------------4--5--4---5--4h5p4---o|
a--7__p5--7vvvvvv---5h7p5vvvvvv---7__p5--7vvvvvv---------------------5--|
e-----------------------------------------------------------------------|

e----------|
b----------|
g----------|
d----------|
a-7__p5--7-|
e----------|

This is the one I use and it seems pretty damn accurate, plus U didn't include both solos

AdamDK
02-10-2007, 09:57 AM
|-------------------------------------------------------------
|-------------------------------------------------------------
|-------------------------------------9-----------9-9---------
|--------------------------9-9-9h11----11-11p9--------11p9----
|-----7-7h9-9p7---7-9-9s11--------------------11-----------11-
|-7h9-----------9---------------------------------------------


|---------------9---------------------------------------------
|-------------s9*-12-12p9-------------------------------------
|-------------------------11-11-9-9~---------------N-O-T------
|-9h11-11~~--------------------------11-9-9h11-------A--------
|-------------------------------------------------R-E-S-T-----
|-------------------------------------------------------------


(Keep 9 on G and B fretted)
|-----------------------------------------------9--(11)br-----
|-----9--12-12p9----9---12p9----9---12p9----9-------12br------
|-9h11*---------11p9*-------11p9*-------11p9*-----------------
|-------------------------------------------------------------
|-------------------------------------------------------------
|-------------------------------------------------------------



vibrate the 14 side to side
|-9---------12br13--12br13----12b13-12p9----------------9-9-------
|--12-9-9--------------------------------12--14-12-14v-----12p9---
|---------------------------------------------------------------11
|-----------------------------------------------------------------
|-----------------------------------------------------------------
|-----------------------------------------------------------------


|--------------------------------------------------------------
|-9-12-12p9----------------------------------------------------
|-----------11---11p9-----9-9----------------9-9------------9--
|--------------------11-------11p9----9h11-------11p9---9h11--9
|---------------------------------11-----------------11--------
|--------------------------------------------------------------

|--------------------------
|--------------------------
|-------------------------- x reapeat a bunch of times
|-9h11------9h11------9h11-
|--------------------------
|--------------------------


That's better - when you tab out stuff and post on the forums, use code tags. Anyway, this seems pretty good, I reccon it should be accepted.

marchoso
02-10-2007, 10:37 AM
"Intros & solos are not much welcomed here"


quoted from the submission page.

gallagher2006
02-10-2007, 10:50 AM
"Intros & solos are not much welcomed here"


quoted from the submission page.

:haha it's like some kind of rascism really :(