new riff


PDA

View Full Version : new riff


guitar?
02-10-2007, 08:21 PM
|--------------------------------------------------|
|--------------------------------------------------|
|--------------------------------------------------|
|-----3---------3-5-------3-------------3-3-5-5----|
|-5-5---5-3-5-5-----3-5-5---5-3-3-5-5-0------------|
|--------------------------------------------------|

or is this better?

|----------------------------------|
|----------------------------------|
|----------------------------------|
|-----3-------5-3-----3------------|
|-3-5---5-3-5-----3-5---5-3-3-5----|
|----------------------------------|

Haha, Crackhead
02-10-2007, 08:37 PM
The riff doesn't really seem to have an endpoint. It seems like there should be more.

EDIT - If you add an open note on the D string at the end, it sounds better, IMO. Btw, it's good.

MetalMessiah665
02-10-2007, 11:18 PM
it sounds good if you put the top and bottom one together