Intro


PDA

View Full Version : Intro


I_I
02-10-2007, 09:13 PM
So i came up with this today and it sounded good as an intro, i need some other opinions




---------------------------------------------
---------------------------------------------
-----6------6------6------6------------------
---7------7------7------7--------------------
-5------5------5------5----------------------
---------------------------------------------

---------------------------------------------
---------------------------------------------
-----4-----4-----4-----3---------------------
---5-----5-----5-----5-----------------------
-3-----3-----3-----3-------------------------
---------------------------------------------

---------------------------------------------
---------------------------------------------
-----6------6------6------6------------------
---7------7------7------7--------------------
-5------5------5------5----------------------
---------------------------------------------


----------------------------------------------
----------------------------------------------
-----4-----4--4--4--4--4----------------------
---5-----5----5--5--5--5----------------------
-3-----3------3--3--3--3----------------------
----------------------------------------------



I know it's a bit messy looking, had to tab it fast