Come On Come On by Little Birdy


PDA

View Full Version : Come On Come On by Little Birdy


bpazolli
02-19-2007, 11:18 AM
This was denied so I posted it on Tab-Archive.com but here it is anyhow. If you want to try and post it for me I give you permission and good luck.

Tabbed by: Ben Pazolli of Perth, Western Australia
(bpazolli|bpazolli@gmail.com)
Tabbed for Ultimate Guitar but feel free to share


A fairly simple song this is how I play it and almost
certainly not how little birdy play it but chances
are they play something similar with different tunning
or something. Take a note of the Drop-D tunning this
is my preference you can obviously play it in standard
tunning but I find it easier this way. If you don't
know how to convert to standard tunning just everything
on the 6th (conventional E or in this case D) string
moves down 2 frets. So for example 9 on the sixth
string turnes to 7. I guess if you want to make it
even easier you could place a capo on the 4th fret
but probably more trouble than it is worth.

Intro 2x
E|--------------------------------|
B|--------------------------------|
G|--------------------------------|
D|-9-9-9-9-9-9--11-11-11-11-11/14-|
A|-9-9-9-9-9-9--11-11-11-11-11/14-|
D|-9-9-9-9-9-9--11-11-11-11-11/14-|

Verse 3x
P.M-------------------------------|
E|--------------------------------|
B|--------------------------------|
G|--------------------------------|
D|-9-9-9-9-9-9--11-11-11-11-11/14-|
A|-9-9-9-9-9-9--11-11-11-11-11/14-|
D|-9-9-9-9-9-9--11-11-11-11-11/14-|

Post 1st Verse
P.M---------------------------|
E|------------------------------------|
B|------------------------------------|
G|------------------------------------|
D|-9-9-9-9-9-9--11-11-11-11-11--11-11-|
A|-9-9-9-9-9-9--11-11-11-11-11--11-11-|
D|-9-9-9-9-9-9--11-11-11-11-11--11-11-|

Pre-Chorus
E|------------------------------|
B|------------------------------|
G|------------------------------|
D|--11--14--9--16--11--14--9--4-|
A|--11--14--9--16--11--14--9--4-|
D|--11--14--9--16--11--14--9--4-|

Chorus 4x
E|--------------------------------------|
B|--------------------------------------|
G|--------------------------------------|
D|-11-11--14-14-14-14--9-9--16-16-16-16-|
A|-11-11--14-14-14-14--9-9--16-16-16-16-|
D|-11-11--14-14-14-14--9-9--16-16-16-16-|

Verse 3x

Pre-Chorus

Chorus 4x

Chorus 4x (for Pre-Bridge)

Bridge seems to have no guitar (or at least
significant) makes sense as I remember seeing
Simon playing the keyboard for this part

Post-Bridge (fade in*)
E|-------------------------|
B|-------------------------|
G|-------------------------|
D|-4-4-4-4-4-4-4-4-4-4-4-4-|
A|-4-4-4-4-4-4-4-4-4-4-4-4-|
D|-4-4-4-4-4-4-4-4-4-4-4-4-|

Chorus 10x

Fade-Out Chorus approx. 4x

To get you started settings I use are
Gain - 1/2
Treble - 1/2
Bass - 1/2
Volume - Set as required
Overdrive - ON
Pickup - Humbucker closest to bridge
Tone - Full
Volume on guitar - Set as required

* An idea start with Palm Muting then ease off and
gradually move into hard strumming

smb
02-19-2007, 11:22 AM
Well I wonder why that was rejected... what a rubbish tab.

bpazolli
02-19-2007, 06:20 PM
Hey don't fight me thats the song. If you have something specific to say, say it. You ****ed up drug crazed wannabe looser (just some helpful criticism in your style)