Guitar Hero tab for..


PDA

View Full Version : Guitar Hero tab for..


Down Shifter
02-22-2007, 03:29 PM
Id like to learn the solo in guitar hero of Heart Shaped box. I can not find any tabs for I was wondering if anyone has it?

fafinaf
02-22-2007, 03:31 PM
Id like to know too.. I think it was a nice addition i mean.. i just for the game. Sounded great!

d3guns
02-22-2007, 03:37 PM
this site is for real guitar players, put down the game

thrashster
02-22-2007, 03:39 PM
are you talking about this:



.....................................................................................



............................. Solo Starts Here

-----------------------------|---------------------------------|
-----------------------------|-------8br--L-------6br------L-5-|
-----------------------------|---------------------------------|
-----3g4--4--4--4---------0--|--7------------5-----------------|
-------------------3--3p--0--|---------------------------------|
--0--------------------------|---------------------------------|




----------------------------|---------------------------------|
-------5br-L---L--3--1p--0--|-------8br--L-------6br------L-5-|
--3-------------------------|---------------------------------|
--3-------------------------|--7------------5-----------------|
----------------------------|---------------------------------|
----------------------------|---------------------------------|



Ends Here

-----------------------------|-------------------|-------------------|
-------5br-L--L-L--3--1p-0---|-------------------|-------------------|
--3--------------------------|--2----------------|--L----------------|
--3--------------------------|--2----------------|--L----------------|
-----------------------------|--0----------------|--L----------------|
-----------------------------|-------------------|-------------------|

fafinaf
02-22-2007, 03:44 PM
this site is for real guitar players, put down the game

You're an idiot.

La Qotsa
02-22-2007, 03:45 PM
You're an idiot.
:golfclap:

d3guns
02-22-2007, 03:48 PM
You're an idiot.

thank you, that makes me feel good

Kirby651
02-22-2007, 04:11 PM
thank you, that makes me feel good

Well, When they recorded the music for guitar hero they put some new parts that were not in the original song.

The OP wants the REAL guitar tab for the extra parts in the game.

buzz
02-22-2007, 04:13 PM
its not hard...its basically the melody line of the vocal that goes ''broken hymen of your highness son,lit black'' etc.etc

iv never posted in this area of the site before....and its gay btw.