a little song i made


PDA

View Full Version : a little song i made


rockisnotdead
02-23-2007, 10:18 AM
ok i am going to find out how good i am at tabs....
i wrote a song for electric guitar....please give constructive critisim. i you think you can play it make a vid of you playing it, please!!! post it to youtube and send a link to this tread....... genre:hardcore punk. ps. if you got a idea for a lead part tab out!!!

*-palm muting
intro 1
e|---------------------------------------------------------------------------------------------------
b|---------------------------------------------------------------------------------------------------
g|-5555555555555555555555577775555555555557777555544444444-4-5-7-5
d|-7777777777755554444444444444444333333333333333366666666-6-7-9-7
a|---------------------------------------------------------------------------------------------------
e|---------------------------------------------------------------------------------------------------
*******************************************************
intro 1 twice

intro 2

|---------------------------------------------------------------------------------------------------------
|---------------------------------------------------------------------------------------------------------
|------------------------------------------------------4-4-4--4-4-4------------------------------------
|---7-7---7-7-7--7-7-7--5-5-5--4-4-4--4-4-4--4-4-4--4-4-4---2-2-2--2-2-2--2-2-2--2-2-2
|---7-7---7-7-7--7-7-7--5-5-5--4-4-4--4-4-4--2-2-2--2-2-2---2-2-2--2-2-2--2-2-2--2-2-2
|---5-5---5-5-5--5-5-5--3-3-3--2-2-2--2-2-2---------------------0-0-0--0-0-0--0-0-0--0-0-0


|----------------------------------------------|
|----------------------------------------------|
|--5-5-5--5-5-5--5-5-5--5-5-5--4---4-4|
|--5-5-5--5-5-5--5-5-5--5-5-5--4---4-4|
|--3-3-3--3-3-3--3-3-3--3-3-3--2---2-2|
|----------------------------------------------|

Do that once

verse
|-----------------------------------------------------------------|
|-----------------------------------------------------------------|
|--44-4----------------repeat-as-many-times-u-want-to|
|--44-4--22-2--55-5------------------------------------------|
|--22-2--22-2--55-5------------------------------------------|
|----------44-4--33-3------------------------------------------|
** ** **

chorus

|------------------------------------------------------
|--------.---------------------------------------------
|.--------------4---2---------------------------------
|-2~---.4~---4---2---5--4--2~---4--------------play verse and chorus again and........
|-2~---.4~---2---0---5--4--2~---4-----------4-
|-0~----2~------------3--2--0~---2----2-4-2---



thats it havent got a bridge yet but it comes after the second chorus :) good luck

Darc
02-28-2007, 08:10 PM
its okay so far. keep it up.