Untitled Song... Please cc.


PDA

View Full Version : Untitled Song... Please cc.


ryananger
02-23-2007, 05:47 PM
I'm currently working on lyrics and my friend is working on the keyboard, electronica part to it. This tab was all me, though. So far we only play covers of oldschool punk, but when we do start creating original stuff, its going to be a kinda funky electronica.... I dunno, very unique sound.


Tuning: Standard

intro pt. 1 intro pt.2
e|-------------------------------------------|--------------------------------|
B|-------------------------------------------|--------------------------------|
G|-------------------------------------------|--------------------------------|
D|---------7----------------------7---------|--8-7-0-10-0-8-7-----------|
A|--0-7-8--8-let ring--0---7-8--8-7-0--|---------------------8---------|
E|-------------------------------------------|--------------------------------|

verse
e|---------------------------------------------------------------------------|
B|---------------------------------------------------------------------------|
G|----------------------------------------(7)-------------------------------|
D|------------8-7-0-10---0-8-7-------(7)--let ring---------------------|
A|--0-8-7-0-----------------------8-(7-5)--------------------------------|
E|---------------------------------------------------------------------------|

chorus
e|---------------------------------------------------------------------------|
B|---------------------------------------------------------------------------|
G|--77---------5--55-9-7------------------------------------------------|
D|--77-7--77-5--55-9-7--(7)-------------------------------------------|
A|--55-7--77-3--33-7-5--(7)--let ring---------------------------------|
E|------5--55---------------(5)--------------------------------------------|

outro
e|-------------------------------------------
B|-------------------------------------------
G|-------------------------------------------
D|-------------------------------------------
A|---------7----------------------7---------
E|--0-7-8--8-let ring--0---7-8--8-7p0--

intro1 x5
intro2 x1
verse x4 (play parentheses last time)
chorus x2 (play parentheses last time)
intro1 x3
intro2 x1
verse x4 (play parentheses last time)
chorus x4 (play parentheses every 2nd time)
intro1 x1
intro2 x1
outro

| / slide up
| \ slide down
| h hammer-on
| p pull-off
| ~ vibrato
| + harmonic
| x Mute note
=================================================

Kirby651
02-24-2007, 02:26 PM
Use the "[code]" and "[/code ]" tags to post tabs like this.

Also, I would help if you put this into a GP or PT format. You cant really tell what it sounds like without note duration marks...

Darc
02-28-2007, 08:08 PM
the beginning reminds me of bad current by endless hallway. overall i like it.