"Scream the name"


PDA

View Full Version : "Scream the name"


Darc
02-25-2007, 07:51 PM
This is...part of a song that I made, mostly cuz its not done yet.

Intro

e|-------------------------------------------------------------------------------------------------------|
B|-------------------------------------------------------------------------------------------------------|
G|-------------------------------------------------------------------------------------------------------|
D|-----9b-9b---xxx---9--9---xxx--9---Slide down------------------------------------------------|
A|-----9b-9b---xxx---9--9---xxx--9-----------------------------------------------------------------|
E|-----8b-8b---xxx---8--8---xxx--8-----------------------------------------------------------------|

Verse

e|--------------------------------------------------------------------------------------------------------|
B|--------------------------------------------------------------------------------------------------------|
G|--------------------------------------------------------------------------------------------------------|
D|---9-9-9-9--8-8-8-8--9-9-9-9--x-x-x-x--9-9-9-9--8-8-8-8--12-12-12-12--x-x-x-x-------|
A|---9-9-9-9--8-8-8-8--9-9-9-9--x-x-x-x--9-9-9-9--8-8-8-8--12-12-12-12--x-x-x-x-------|
E|---7-7-7-7--6-6-6-6--7-7-7-7--x-x-x-x--7-7-7-7--6-6-6-6--10-10-10-10--x-x-x-x-------|

x2

(I'll be back to edit this later but I'm eating now :peace:

Stolenidentity1
02-25-2007, 09:05 PM
Heres the code, next time use notepad then copy and paste it in



This is...part of a song that I made, mostly cuz its not done yet.

Intro

e|----------------------------------------------|
B|----------------------------------------------|
G|----------------------------------------------|
D|-----9b-9b---xxx---9--9---xxx--9---Slide down-|
A|-----9b-9b---xxx---9--9---xxx--9--------------|
E|-----8b-8b---xxx---8--8---xxx--8--------------|
Verse

e|---------------------------------------------------------------------------------|
B|---------------------------------------------------------------------------------|
G|---------------------------------------------------------------------------------|
D|-----9-9-9-9--8-8-8-8--9-9-9-9--x-x-x-x--9-9-9-9--8-8-8-8--12-12-12-12--x-x-x-x--|
A|-----9-9-9-9--8-8-8-8--9-9-9-9--x-x-x-x--9-9-9-9--8-8-8-8--12-12-12-12--x-x-x-x--|
E|-----7-7-7-7--6-6-6-6--7-7-7-7--x-x-x-x--7-7-7-7--6-6-6-6--10-10-10-10--x-x-x-x--|

it just doesnt sound good

Darc
02-25-2007, 11:29 PM
I know lol, its not done yet, I'm working on it. I just threw it together in a few minutes. But I like the first part. I don't know if I tabbed the first part right. Its meant to be bent but not let go of until the E string gets pushed off fret board. Then let go of it. I don't know how to tab that O_O. It'll get better sometime. I'll work on it, update it...and stuff. I'll throw a solo in there. Maybe an ending.