"The Runs"


PDA

View Full Version : "The Runs"


emo_punk_guitar
02-25-2007, 11:40 PM
This is just the chords for one of the songs i am working on. Played in 3/4 time.


e|------------|------------|------------|------------|------------|
B|------------|------------|------------|------------|------------|
G|-6--6-6-6-6-|-6--6-6-6-6-|-9--9-9-9-9-|-9--9-9-9-9-|-6--6-6-6-6-|
D|-7--7-7-7-7-|-7--7-7-7-7-|-7--7-7-7-7-|-7--7-7-7-7-|-7--7-7-7-7-|
A|-5--5-5-5-5-|-5--5-5-5-5-|-5--5-5-5-5-|-5--5-5-5-5-|-5--5-5-5-5-|
E|------------|------------|------------|------------|------------|

Strum these aswell, same way --------------->
e|-------------|-------------|-------------|--2--|--2--|--2--|--5--|
B|-------------|-------------|-------------|--2--|--2--|--2--|--5--|
G|--6--6-6-6-6-|--4--4-4-4-4-|--4--4-4-4-4-|--2--|--2--|--2--|--6--|
D|--7--7-7-7-7-|--7--7-7-7-7-|--7--7-7-7-7-|--4--|--4--|--4--|--7--|
A|--5--5-5-5-5-|--5--5-5-5-5-|--5--5-5-5-5-|--4--|--4--|--4--|--7--|
E|-------------|-------------|-------------|--2--|--2--|--2--|--5--|