[TAB] A little Judas Priest inspired riff


PDA

View Full Version : [TAB] A little Judas Priest inspired riff


CodeMonk
04-29-2007, 04:09 AM
A little vibrato at the end of each measure there.



E ----------------------------------------------------
B ----------------------------------------------------
G ----------------------------------------------------
D --------5--4--4-----------5--4----------------------
A -----------------7--------------5--7~---------------
E --0--0--------------0--0----------------------------



E ----------------------------------------------------
B ----------------------------------------------------
G --------4--2--2--------4--2-------------------------
D -----------------5-----------5--4--5~---------------
A --2--2--------------2-------------------------------
E ----------------------------------------------------



E ----------------------------------------------------
B ----------------------------------------------------
G ----------------------------------------------------
D --------5--4--4-----------5--4----------------------
A -----------------7--------------5--7~---------------
E --0--0--------------0--0----------------------------



E ----------------------------------------------------
B ----------------------------------------------------
G --------4--2--2--------4--2-------------------------
D -----------------5-----------4--5--4~---------------
A --2--2--------------2-------------------------------
E ----------------------------------------------------

arcains_valor
05-06-2007, 08:30 PM
That's actually pretty cool. It'd be better if you could get that on guitar pro or midi.