For you softies


PDA

View Full Version : For you softies


SonataFanica
05-02-2007, 09:56 PM
I am very into metal, especially power metal, but I got a little experimental. This riff is a little more upbeat.

e|------------------------------------------
B|------------------------------------------
G|-----------------------------------------
D|--7---6---7---9---7---6---------------
A|--5---4---5---7---5---4---9---7------
E|------------------------------7---5------

e|---------------------------------------------------------
B|---------------------------------------------------------
G|---------------------------------------------------------
D|--7---6---7---9---7---6-------------------------------
A|--5---4---5---7---5---4---9---7---------2---0---2---4---
E|------------------------------7---5---------2---0---2---4---

Sound Mind
05-02-2007, 10:05 PM
if your E, D and F# power chords are gonna be played like that then your A and B should also be played drop-d style. You can't have 9-7, 7-5 and then 2-2, that doesn't make sense.

BlackicN
05-02-2007, 10:08 PM
That's just a bunch of random power chords... is there supposed to be something special in it?

SonataFanica
05-02-2007, 10:12 PM
i was just making something up out of nowhere, I wasn't intending to take it seriously and make a project out of it guys, lol :)

gary2damax
05-05-2007, 12:51 PM
Haha isn't it fun just to much around on your guitar :)
I agree the last 4 powerchords should be 2-0, 0-0, 2-0 4-0. I myself dont use powerchords much, and don't know much about them, but it just seems right. Besides it sounds exactly the same to me, but then again it just seems right. Oh and if that was the little finish, you might try making it sound a little more ending by putting the 2 there as well to make it sound like it finished
Even though my crit may not be good could you crit mine please?

Nunwhxre 666
05-06-2007, 11:33 AM
Yeah, there wasn't much feel to it. It just seemed like a bunch of random power chords to me...

But hey, if you like Power Metal, crit my power metal ballad. :D Link is in my sig.